0
SECTION
2
HEADER
0
ENDSEC
0
SECTION
2
TABLES
0
TABLE
2
LTYPE
0
LTYPE
72
65
70
64
2
CONTINUOUS
3
______
73
0
40
0
0
ENDTAB
0
TABLE
2
LAYER
0
ENDTAB
0
ENDSEC
0
SECTION
2
ENTITIES
0
CIRCLE
8
0
10
0
20
0
40
0.05
0
CIRCLE
8
0
10
0
20
0
40
0.05
0
LINE
8
layer0
10
11.3885031
20
1.7989726
11
11.3038406
21
1.741546
0
LINE
8
layer0
10
11.3038406
20
1.741546
11
11.1416795
21
1.6387953
0
LINE
8
layer0
10
11.1416795
20
1.6387953
11
10.9922234
21
1.5526176
0
LINE
8
layer0
10
10.9922234
20
1.5526176
11
10.8539939
21
1.4804355
0
LINE
8
layer0
10
10.8539939
20
1.4804355
11
10.7305613
21
1.422409
0
LINE
8
layer0
10
10.7305613
20
1.422409
11
10.6200525
21
1.3759946
0
LINE
8
layer0
10
10.6200525
20
1.3759946
11
10.5267441
21
1.3413172
0
LINE
8
layer0
10
10.5267441
20
1.3413172
11
10.3663108
21
1.2898247
0
LINE
8
layer0
10
10.3663108
20
1.2898247
11
10.331746
21
1.2752733
0
LINE
8
layer0
10
10.331746
20
1.2752733
11
10.3023458
21
1.2599352
0
LINE
8
layer0
10
10.3023458
20
1.2599352
11
10.2781208
21
1.2440221
0
LINE
8
layer0
10
10.2781208
20
1.2440221
11
10.2590804
21
1.2277559
0
LINE
8
layer0
10
10.2590804
20
1.2277559
11
10.2452162
21
1.2113366
0
LINE
8
layer0
10
10.2452162
20
1.2113366
11
10.2365388
21
1.1949762
0
LINE
8
layer0
10
10.2365388
20
1.1949762
11
10.2330386
21
1.1788846
0
LINE
8
layer0
10
10.2330386
20
1.1788846
11
10.2369379
21
1.1383213
0
LINE
8
layer0
10
10.2369379
20
1.1383213
11
10.256062
21
0.9503641
0
LINE
8
layer0
10
10.256062
20
0.9503641
11
10.2718006
21
0.7620931
0
LINE
8
layer0
10
10.2718006
20
0.7620931
11
10.2754211
21
0.7215041
0
LINE
8
layer0
10
10.2754211
20
0.7215041
11
10.2818186
21
0.7063296
0
LINE
8
layer0
10
10.2818186
20
0.7063296
11
10.2933545
21
0.6918422
0
LINE
8
layer0
10
10.2933545
20
0.6918422
11
10.3099996
21
0.67825
0
LINE
8
layer0
10
10.3099996
20
0.67825
11
10.3317047
21
0.6657595
0
LINE
8
layer0
10
10.3317047
20
0.6657595
11
10.3584413
21
0.6545687
0
LINE
8
layer0
10
10.3584413
20
0.6545687
11
10.3901593
21
0.644894
0
LINE
8
layer0
10
10.3901593
20
0.644894
11
10.4268094
21
0.6369417
0
LINE
8
layer0
10
10.4268094
20
0.6369417
11
10.5939727
21
0.6158054
0
LINE
8
layer0
10
10.5939727
20
0.6158054
11
10.6920643
21
0.5988639
0
LINE
8
layer0
10
10.6920643
20
0.5988639
11
10.8092201
21
0.5735457
0
LINE
8
layer0
10
10.8092201
20
0.5735457
11
10.9412133
21
0.5391879
0
LINE
8
layer0
10
10.9412133
20
0.5391879
11
11.0903527
21
0.4936344
0
LINE
8
layer0
10
11.0903527
20
0.4936344
11
11.2530991
21
0.4363865
0
LINE
8
layer0
10
11.2530991
20
0.4363865
11
11.4313795
21
0.3651824
0
LINE
8
layer0
10
11.4313795
20
0.3651824
11
11.5251525
21
0.3242903
0
LINE
8
layer0
10
11.5251525
20
0.3242903
11
11.6974697
21
0.2430941
0
ARC
8
layer0
10
-0.0000046
20
-1e-7
40
11.7
50
358.8094642
51
361.1905362
0
LINE
8
layer0
10
11.6974697
20
-0.2430941
11
11.5251525
21
-0.3242903
0
LINE
8
layer0
10
11.5251525
20
-0.3242903
11
11.4313795
21
-0.3651824
0
LINE
8
layer0
10
11.4313795
20
-0.3651824
11
11.2530991
21
-0.4363865
0
LINE
8
layer0
10
11.2530991
20
-0.4363865
11
11.0903527
21
-0.4936344
0
LINE
8
layer0
10
11.0903527
20
-0.4936344
11
10.9412133
21
-0.5391879
0
LINE
8
layer0
10
10.9412133
20
-0.5391879
11
10.8092201
21
-0.5735457
0
LINE
8
layer0
10
10.8092201
20
-0.5735457
11
10.6920643
21
-0.5988639
0
LINE
8
layer0
10
10.6920643
20
-0.5988639
11
10.5939727
21
-0.6158054
0
LINE
8
layer0
10
10.5939727
20
-0.6158054
11
10.4268094
21
-0.6369417
0
LINE
8
layer0
10
10.4268094
20
-0.6369417
11
10.3901593
21
-0.644894
0
LINE
8
layer0
10
10.3901593
20
-0.644894
11
10.3584413
21
-0.6545687
0
LINE
8
layer0
10
10.3584413
20
-0.6545687
11
10.3317047
21
-0.6657595
0
LINE
8
layer0
10
10.3317047
20
-0.6657595
11
10.3099996
21
-0.67825
0
LINE
8
layer0
10
10.3099996
20
-0.67825
11
10.2933545
21
-0.6918422
0
LINE
8
layer0
10
10.2933545
20
-0.6918422
11
10.2818186
21
-0.7063296
0
LINE
8
layer0
10
10.2818186
20
-0.7063296
11
10.2754211
21
-0.7215041
0
LINE
8
layer0
10
10.2754211
20
-0.7215041
11
10.2718006
21
-0.7620931
0
LINE
8
layer0
10
10.2718006
20
-0.7620931
11
10.256062
21
-0.9503641
0
LINE
8
layer0
10
10.256062
20
-0.9503641
11
10.2369379
21
-1.1383213
0
LINE
8
layer0
10
10.2369379
20
-1.1383213
11
10.2330386
21
-1.1788846
0
LINE
8
layer0
10
10.2330386
20
-1.1788846
11
10.2365388
21
-1.1949762
0
LINE
8
layer0
10
10.2365388
20
-1.1949762
11
10.2452162
21
-1.2113366
0
LINE
8
layer0
10
10.2452162
20
-1.2113366
11
10.2590804
21
-1.2277559
0
LINE
8
layer0
10
10.2590804
20
-1.2277559
11
10.2781208
21
-1.2440221
0
LINE
8
layer0
10
10.2781208
20
-1.2440221
11
10.3023458
21
-1.2599352
0
LINE
8
layer0
10
10.3023458
20
-1.2599352
11
10.331746
21
-1.2752733
0
LINE
8
layer0
10
10.331746
20
-1.2752733
11
10.3663108
21
-1.2898247
0
LINE
8
layer0
10
10.3663108
20
-1.2898247
11
10.5267441
21
-1.3413172
0
LINE
8
layer0
10
10.5267441
20
-1.3413172
11
10.6200525
21
-1.3759946
0
LINE
8
layer0
10
10.6200525
20
-1.3759946
11
10.7305613
21
-1.422409
0
LINE
8
layer0
10
10.7305613
20
-1.422409
11
10.8539939
21
-1.4804355
0
LINE
8
layer0
10
10.8539939
20
-1.4804355
11
10.9922234
21
-1.5526176
0
LINE
8
layer0
10
10.9922234
20
-1.5526176
11
11.1416795
21
-1.6387953
0
LINE
8
layer0
10
11.1416795
20
-1.6387953
11
11.3038406
21
-1.741546
0
LINE
8
layer0
10
11.3038406
20
-1.741546
11
11.3885031
21
-1.7989726
0
LINE
8
layer0
10
11.3885031
20
-1.7989726
11
11.5429665
21
-1.9104494
0
ARC
8
layer0
10
-0.0000044
20
0.0000017
40
11.7
50
348.2212246
51
350.6022965
0
LINE
8
layer0
10
11.4536297
20
-2.3883594
11
11.2693267
21
-2.4365098
0
LINE
8
layer0
10
11.2693267
20
-2.4365098
11
11.1696364
21
-2.459475
0
LINE
8
layer0
10
11.1696364
20
-2.459475
11
10.9813079
21
-2.4967078
0
LINE
8
layer0
10
10.9813079
20
-2.4967078
11
10.8108132
21
-2.5230763
0
LINE
8
layer0
10
10.8108132
20
-2.5230763
11
10.6558428
21
-2.5404499
0
LINE
8
layer0
10
10.6558428
20
-2.5404499
11
10.5197839
21
-2.5499689
0
LINE
8
layer0
10
10.5197839
20
-2.5499689
11
10.3999706
21
-2.5533287
0
LINE
8
layer0
10
10.3999706
20
-2.5533287
11
10.3004362
21
-2.5519575
0
LINE
8
layer0
10
10.3004362
20
-2.5519575
11
10.1322354
21
-2.5420177
0
LINE
8
layer0
10
10.1322354
20
-2.5420177
11
10.0947481
21
-2.5431002
0
LINE
8
layer0
10
10.0947481
20
-2.5431002
11
10.0617925
21
-2.546782
0
LINE
8
layer0
10
10.0617925
20
-2.546782
11
10.0334548
21
-2.5528694
0
LINE
8
layer0
10
10.0334548
20
-2.5528694
11
10.0098242
21
-2.561159
0
LINE
8
layer0
10
10.0098242
20
-2.561159
11
9.9909649
21
-2.5714612
0
LINE
8
layer0
10
9.9909649
20
-2.5714612
11
9.9769633
21
-2.5835822
0
LINE
8
layer0
10
9.9769633
20
-2.5835822
11
9.9678865
21
-2.5973228
0
LINE
8
layer0
10
9.9678865
20
-2.5973228
11
9.9568694
21
-2.6365555
0
LINE
8
layer0
10
9.9568694
20
-2.6365555
11
9.9068041
21
-2.8187288
0
LINE
8
layer0
10
9.9068041
20
-2.8187288
11
9.8534686
21
-2.9999717
0
LINE
8
layer0
10
9.8534686
20
-2.9999717
11
9.8421822
21
-3.0391278
0
LINE
8
layer0
10
9.8421822
20
-3.0391278
11
9.842666
21
-3.0555885
0
LINE
8
layer0
10
9.842666
20
-3.0555885
11
9.8481894
21
-3.0732649
0
LINE
8
layer0
10
9.8481894
20
-3.0732649
11
9.8588005
21
-3.0919521
0
LINE
8
layer0
10
9.8588005
20
-3.0919521
11
9.8745278
21
-3.11144
0
LINE
8
layer0
10
9.8745278
20
-3.11144
11
9.8954163
21
-3.1315335
0
LINE
8
layer0
10
9.8954163
20
-3.1315335
11
9.9214976
21
-3.1520127
0
LINE
8
layer0
10
9.9214976
20
-3.1520127
11
9.9528
21
-3.1726676
0
LINE
8
layer0
10
9.9528
20
-3.1726676
11
10.1010399
21
-3.2527629
0
LINE
8
layer0
10
10.1010399
20
-3.2527629
11
10.1863876
21
-3.3039952
0
LINE
8
layer0
10
10.1863876
20
-3.3039952
11
10.2864862
21
-3.3699253
0
LINE
8
layer0
10
10.2864862
20
-3.3699253
11
10.3971547
21
-3.4496444
0
LINE
8
layer0
10
10.3971547
20
-3.4496444
11
10.5197672
21
-3.5459971
0
LINE
8
layer0
10
10.5197672
20
-3.5459971
11
10.6508434
21
-3.6581699
0
LINE
8
layer0
10
10.6508434
20
-3.6581699
11
10.791363
21
-3.7889681
0
LINE
8
layer0
10
10.791363
20
-3.7889681
11
10.8640318
21
-3.8609736
0
LINE
8
layer0
10
10.8640318
20
-3.8609736
11
10.9953814
21
-3.9989349
0
ARC
8
layer0
10
-0.0000038
20
0.000003
40
11.7
50
337.6329868
51
340.0140585
0
LINE
8
layer0
10
10.81975
20
-4.452292
11
10.6297375
21
-4.465757
0
LINE
8
layer0
10
10.6297375
20
-4.465757
11
10.5275248
21
-4.470013
0
LINE
8
layer0
10
10.5275248
20
-4.470013
11
10.3355614
21
-4.4720066
0
LINE
8
layer0
10
10.3355614
20
-4.4720066
11
10.1631245
21
-4.4665978
0
LINE
8
layer0
10
10.1631245
20
-4.4665978
11
10.0076004
21
-4.4551999
0
LINE
8
layer0
10
10.0076004
20
-4.4551999
11
9.872109
21
-4.4395561
0
LINE
8
layer0
10
9.872109
20
-4.4395561
11
9.7537184
21
-4.420843
0
LINE
8
layer0
10
9.7537184
20
-4.420843
11
9.6561307
21
-4.4012058
0
LINE
8
layer0
10
9.6561307
20
-4.4012058
11
9.4926203
21
-4.3605284
0
LINE
8
layer0
10
9.4926203
20
-4.3605284
11
9.4555724
21
-4.3547042
0
LINE
8
layer0
10
9.4555724
20
-4.3547042
11
9.4225014
21
-4.3522677
0
LINE
8
layer0
10
9.4225014
20
-4.3522677
11
9.3935277
21
-4.3530444
0
LINE
8
layer0
10
9.3935277
20
-4.3530444
11
9.3687762
21
-4.3568508
0
LINE
8
layer0
10
9.3687762
20
-4.3568508
11
9.348345
21
-4.3635122
0
LINE
8
layer0
10
9.348345
20
-4.3635122
11
9.3323546
21
-4.372854
0
LINE
8
layer0
10
9.3323546
20
-4.372854
11
9.3209075
21
-4.3846928
0
LINE
8
layer0
10
9.3209075
20
-4.3846928
11
9.302869
21
-4.4212331
0
LINE
8
layer0
10
9.302869
20
-4.4212331
11
9.2201819
21
-4.5911051
0
LINE
8
layer0
10
9.2201819
20
-4.5911051
11
9.1344512
21
-4.7594616
0
LINE
8
layer0
10
9.1344512
20
-4.7594616
11
9.1161621
21
-4.7958771
0
LINE
8
layer0
10
9.1161621
20
-4.7958771
11
9.1136129
21
-4.8121464
0
LINE
8
layer0
10
9.1136129
20
-4.8121464
11
9.1157944
21
-4.8305368
0
LINE
8
layer0
10
9.1157944
20
-4.8305368
11
9.122791
21
-4.8508556
0
LINE
8
layer0
10
9.122791
20
-4.8508556
11
9.1346696
21
-4.8729016
0
LINE
8
layer0
10
9.1346696
20
-4.8729016
11
9.1515103
21
-4.8964912
0
LINE
8
layer0
10
9.1515103
20
-4.8964912
11
9.1733844
21
-4.9214141
0
LINE
8
layer0
10
9.1733844
20
-4.9214141
11
9.2003586
21
-4.9474691
0
LINE
8
layer0
10
9.2003586
20
-4.9474691
11
9.3313569
21
-5.0534396
0
LINE
8
layer0
10
9.3313569
20
-5.0534396
11
9.4058375
21
-5.1194822
0
LINE
8
layer0
10
9.4058375
20
-5.1194822
11
9.492117
21
-5.2026828
0
LINE
8
layer0
10
9.492117
20
-5.2026828
11
9.5862529
21
-5.3013798
0
LINE
8
layer0
10
9.5862529
20
-5.3013798
11
9.6890729
21
-5.4186219
0
LINE
8
layer0
10
9.6890729
20
-5.4186219
11
9.7973056
21
-5.55297
0
LINE
8
layer0
10
9.7973056
20
-5.55297
11
9.9113985
21
-5.7073615
0
LINE
8
layer0
10
9.9113985
20
-5.7073615
11
9.969599
21
-5.7914938
0
LINE
8
layer0
10
9.969599
20
-5.7914938
11
10.0733618
21
-5.9512415
0
ARC
8
layer0
10
-0.0000043
20
0.0000017
40
11.7
50
327.0447623
51
329.4258341
0
LINE
8
layer0
10
9.8174166
20
-6.3646071
11
9.6281653
21
-6.3429281
0
LINE
8
layer0
10
9.6281653
20
-6.3429281
11
9.5269109
21
-6.3283302
0
LINE
8
layer0
10
9.5269109
20
-6.3283302
11
9.3378497
21
-6.2950166
0
LINE
8
layer0
10
9.3378497
20
-6.2950166
11
9.1693428
21
-6.2580148
0
LINE
8
layer0
10
9.1693428
20
-6.2580148
11
9.0185612
21
-6.2182334
0
LINE
8
layer0
10
9.0185612
20
-6.2182334
11
8.8882513
21
-6.1779595
0
LINE
8
layer0
10
8.8882513
20
-6.1779595
11
8.7753151
21
-6.1378109
0
LINE
8
layer0
10
8.7753151
20
-6.1378109
11
8.6829973
21
-6.1005762
0
LINE
8
layer0
10
8.6829973
20
-6.1005762
11
8.5297454
21
-6.0305465
0
LINE
8
layer0
10
8.5297454
20
-6.0305465
11
8.4943985
21
-6.0180139
0
LINE
8
layer0
10
8.4943985
20
-6.0180139
11
8.4623383
21
-6.0095422
0
LINE
8
layer0
10
8.4623383
20
-6.0095422
11
8.4337152
21
-6.0049817
0
LINE
8
layer0
10
8.4337152
20
-6.0049817
11
8.4086857
21
-6.0041752
0
LINE
8
layer0
10
8.4086857
20
-6.0041752
11
8.3873784
21
-6.006969
0
LINE
8
layer0
10
8.3873784
20
-6.006969
11
8.3699437
21
-6.0132135
0
LINE
8
layer0
10
8.3699437
20
-6.0132135
11
8.3565162
21
-6.0227473
0
LINE
8
layer0
10
8.3565162
20
-6.0227473
11
8.3320705
21
-6.0553509
0
LINE
8
layer0
10
8.3320705
20
-6.0553509
11
8.2195774
21
-6.2071368
0
LINE
8
layer0
10
8.2195774
20
-6.2071368
11
8.1043711
21
-6.3568737
0
LINE
8
layer0
10
8.1043711
20
-6.3568737
11
8.079702
21
-6.3893085
0
LINE
8
layer0
10
8.079702
20
-6.3893085
11
8.0742068
21
-6.4048325
0
LINE
8
layer0
10
8.0742068
20
-6.4048325
11
8.0729718
21
-6.4233105
0
LINE
8
layer0
10
8.0729718
20
-6.4233105
11
8.0761158
21
-6.444569
0
LINE
8
layer0
10
8.0761158
20
-6.444569
11
8.0837411
21
-6.4684223
0
LINE
8
layer0
10
8.0837411
20
-6.4684223
11
8.0959606
21
-6.4947047
0
LINE
8
layer0
10
8.0959606
20
-6.4947047
11
8.1128826
21
-6.5232227
0
LINE
8
layer0
10
8.1128826
20
-6.5232227
11
8.1346099
21
-6.5537905
0
LINE
8
layer0
10
8.1346099
20
-6.5537905
11
8.2439057
21
-6.6820276
0
LINE
8
layer0
10
8.2439057
20
-6.6820276
11
8.3049828
21
-6.7606314
0
LINE
8
layer0
10
8.3049828
20
-6.7606314
11
8.3745053
21
-6.8582691
0
LINE
8
layer0
10
8.3745053
20
-6.8582691
11
8.4489027
21
-6.9725831
0
LINE
8
layer0
10
8.4489027
20
-6.9725831
11
8.5284289
21
-7.106722
0
LINE
8
layer0
10
8.5284289
20
-7.106722
11
8.6101323
21
-7.2586703
0
LINE
8
layer0
10
8.6101323
20
-7.2586703
11
8.6939132
21
-7.4313975
0
LINE
8
layer0
10
8.6939132
20
-7.4313975
11
8.7356634
21
-7.5247916
0
LINE
8
layer0
10
8.7356634
20
-7.5247916
11
8.8083059
21
-7.7008857
0
ARC
8
layer0
10
-0.000004
20
0.0000024
40
11.7
50
316.4565272
51
318.8375991
0
LINE
8
layer0
10
8.480763
20
-8.0601831
11
8.2987175
21
-8.0040985
0
LINE
8
layer0
10
8.2987175
20
-8.0040985
11
8.2018695
21
-7.9711436
0
LINE
8
layer0
10
8.2018695
20
-7.9711436
11
8.0221488
21
-7.9036574
0
LINE
8
layer0
10
8.0221488
20
-7.9036574
11
7.8633102
21
-7.8363225
0
LINE
8
layer0
10
7.8633102
20
-7.8363225
11
7.7224057
21
-7.7695124
0
LINE
8
layer0
10
7.7224057
20
-7.7695124
11
7.6017148
21
-7.7059799
0
LINE
8
layer0
10
7.6017148
20
-7.7059799
11
7.4980789
21
-7.6457629
0
LINE
8
layer0
10
7.4980789
20
-7.6457629
11
7.4141749
21
-7.5921989
0
LINE
8
layer0
10
7.4141749
20
-7.5921989
11
7.2764003
21
-7.4952016
0
LINE
8
layer0
10
7.2764003
20
-7.4952016
11
7.2439581
21
-7.4763874
0
LINE
8
layer0
10
7.2439581
20
-7.4763874
11
7.2140004
21
-7.4621689
0
LINE
8
layer0
10
7.2140004
20
-7.4621689
11
7.1867027
21
-7.4524266
0
LINE
8
layer0
10
7.1867027
20
-7.4524266
11
7.1622476
21
-7.4470347
0
LINE
8
layer0
10
7.1622476
20
-7.4470347
11
7.1407897
21
-7.4458656
0
LINE
8
layer0
10
7.1407897
20
-7.4458656
11
7.1225044
21
-7.4488002
0
LINE
8
layer0
10
7.1225044
20
-7.4488002
11
7.1075537
21
-7.4557044
0
LINE
8
layer0
10
7.1075537
20
-7.4557044
11
7.0775334
21
-7.483261
0
LINE
8
layer0
10
7.0775334
20
-7.483261
11
6.9390651
21
-7.6117918
0
LINE
8
layer0
10
6.9390651
20
-7.6117918
11
6.7983063
21
-7.7378101
0
LINE
8
layer0
10
6.7983063
20
-7.7378101
11
6.7680974
21
-7.7651597
0
LINE
8
layer0
10
6.7680974
20
-7.7651597
11
6.7598432
21
-7.7794096
0
LINE
8
layer0
10
6.7598432
20
-7.7794096
11
6.7552339
21
-7.7973461
0
LINE
8
layer0
10
6.7552339
20
-7.7973461
11
6.7544181
21
-7.8188203
0
LINE
8
layer0
10
6.7544181
20
-7.8188203
11
6.7575306
21
-7.8436686
0
LINE
8
layer0
10
6.7575306
20
-7.8436686
11
6.7647126
21
-7.8717489
0
LINE
8
layer0
10
6.7647126
20
-7.8717489
11
6.7761063
21
-7.9028907
0
LINE
8
layer0
10
6.7761063
20
-7.9028907
11
6.7918469
21
-7.9369304
0
LINE
8
layer0
10
6.7918469
20
-7.9369304
11
6.8757182
21
-8.083067
0
LINE
8
layer0
10
6.8757182
20
-8.083067
11
6.921312
21
-8.1715554
0
LINE
8
layer0
10
6.921312
20
-8.1715554
11
6.9717097
21
-8.2803054
0
LINE
8
layer0
10
6.9717097
20
-8.2803054
11
7.0238353
21
-8.4063434
0
LINE
8
layer0
10
7.0238353
20
-8.4063434
11
7.0773594
21
-8.5528113
0
LINE
8
layer0
10
7.0773594
20
-8.5528113
11
7.1297512
21
-8.7171853
0
LINE
8
layer0
10
7.1297512
20
-8.7171853
11
7.1803671
21
-8.9023662
0
LINE
8
layer0
10
7.1803671
20
-8.9023662
11
7.2042453
21
-9.0018417
0
LINE
8
layer0
10
7.2042453
20
-9.0018417
11
7.2432937
21
-9.1882854
0
ARC
8
layer0
10
-0.0000031
20
0.0000034
40
11.7
50
305.8682897
51
308.2493615
0
LINE
8
layer0
10
6.8553071
20
-9.4812793
11
6.6866669
21
-9.3926988
0
LINE
8
layer0
10
6.6866669
20
-9.3926988
11
6.5975233
21
-9.3425093
0
LINE
8
layer0
10
6.5975233
20
-9.3425093
11
6.4332633
21
-9.2431486
0
LINE
8
layer0
10
6.4332633
20
-9.2431486
11
6.2895019
21
-9.1477737
0
LINE
8
layer0
10
6.2895019
20
-9.1477737
11
6.1632729
21
-9.05621
0
LINE
8
layer0
10
6.1632729
20
-9.05621
11
6.0563111
21
-8.9715823
0
LINE
8
layer0
10
6.0563111
20
-8.9715823
11
5.9655046
21
-8.8933476
0
LINE
8
layer0
10
5.9655046
20
-8.8933476
11
5.8928716
21
-8.8252784
0
LINE
8
layer0
10
5.8928716
20
-8.8252784
11
5.775266
21
-8.7046166
0
LINE
8
layer0
10
5.775266
20
-8.7046166
11
5.7468334
21
-8.6801615
0
LINE
8
layer0
10
5.7468334
20
-8.6801615
11
5.7199984
21
-8.6606804
0
LINE
8
layer0
10
5.7199984
20
-8.6606804
11
5.6949556
21
-8.646088
0
LINE
8
layer0
10
5.6949556
20
-8.646088
11
5.6719077
21
-8.6362943
0
LINE
8
layer0
10
5.6719077
20
-8.6362943
11
5.6510299
21
-8.6312023
0
LINE
8
layer0
10
5.6510299
20
-8.6312023
11
5.6325168
21
-8.630727
0
LINE
8
layer0
10
5.6325168
20
-8.630727
11
5.616552
21
-8.6347664
0
LINE
8
layer0
10
5.616552
20
-8.6347664
11
5.5819794
21
-8.6563376
0
LINE
8
layer0
10
5.5819794
20
-8.6563376
11
5.4222513
21
-8.7572365
0
LINE
8
layer0
10
5.4222513
20
-8.7572365
11
5.2607333
21
-8.8552447
0
LINE
8
layer0
10
5.2607333
20
-8.8552447
11
5.2260133
21
-8.8765778
0
LINE
8
layer0
10
5.2260133
20
-8.8765778
11
5.2152812
21
-8.8890683
0
LINE
8
layer0
10
5.2152812
20
-8.8890683
11
5.2074547
21
-8.9058525
0
LINE
8
layer0
10
5.2074547
20
-8.9058525
11
5.2027068
21
-8.9268111
0
LINE
8
layer0
10
5.2027068
20
-8.9268111
11
5.2012005
21
-8.9518083
0
LINE
8
layer0
10
5.2012005
20
-8.9518083
11
5.2031004
21
-8.9807301
0
LINE
8
layer0
10
5.2031004
20
-8.9807301
11
5.2085779
21
-9.0134352
0
LINE
8
layer0
10
5.2085779
20
-9.0134352
11
5.2177957
21
-9.0497877
0
LINE
8
layer0
10
5.2177957
20
-9.0497877
11
5.2733863
21
-9.2088474
0
LINE
8
layer0
10
5.2733863
20
-9.2088474
11
5.3019441
21
-9.3042068
0
LINE
8
layer0
10
5.3019441
20
-9.3042068
11
5.331501
21
-9.4203658
0
LINE
8
layer0
10
5.331501
20
-9.4203658
11
5.3595796
21
-9.5538358
0
LINE
8
layer0
10
5.3595796
20
-9.5538358
11
5.385279
21
-9.7076448
0
LINE
8
layer0
10
5.385279
20
-9.7076448
11
5.4065751
21
-9.878847
0
LINE
8
layer0
10
5.4065751
20
-9.878847
11
5.4223022
21
-10.0701754
0
LINE
8
layer0
10
5.4223022
20
-10.0701754
11
5.4274953
21
-10.1723449
0
LINE
8
layer0
10
5.4274953
20
-10.1723449
11
5.4316199
21
-10.3627891
0
ARC
8
layer0
10
-0.0000027
20
0.0000038
40
11.7
50
295.2800559
51
297.6611279
0
LINE
8
layer0
10
4.996402
20
-10.5795019
11
4.8469098
21
-10.4614421
0
LINE
8
layer0
10
4.8469098
20
-10.4614421
11
4.7685064
21
-10.3957271
0
LINE
8
layer0
10
4.7685064
20
-10.3957271
11
4.6253007
21
-10.2678754
0
LINE
8
layer0
10
4.6253007
20
-10.2678754
11
4.5015122
21
-10.1477084
0
LINE
8
layer0
10
4.5015122
20
-10.1477084
11
4.3942572
21
-10.0345092
0
LINE
8
layer0
10
4.3942572
20
-10.0345092
11
4.304667
21
-9.9316683
0
LINE
8
layer0
10
4.304667
20
-9.9316683
11
4.2297822
21
-9.83808
0
LINE
8
layer0
10
4.2297822
20
-9.83808
11
4.1708936
21
-9.7578235
0
LINE
8
layer0
10
4.1708936
20
-9.7578235
11
4.0774621
21
-9.6176063
0
LINE
8
layer0
10
4.0774621
20
-9.6176063
11
4.0540071
21
-9.5883432
0
LINE
8
layer0
10
4.0540071
20
-9.5883432
11
4.0312088
21
-9.5642628
0
LINE
8
layer0
10
4.0312088
20
-9.5642628
11
4.0092736
21
-9.5453173
0
LINE
8
layer0
10
4.0092736
20
-9.5453173
11
3.9884177
21
-9.5314553
0
LINE
8
layer0
10
3.9884177
20
-9.5314553
11
3.9688312
21
-9.5226137
0
LINE
8
layer0
10
3.9688312
20
-9.5226137
11
3.9507206
21
-9.5187447
0
LINE
8
layer0
10
3.9507206
20
-9.5187447
11
3.9342854
21
-9.5197818
0
LINE
8
layer0
10
3.9342854
20
-9.5197818
11
3.8963377
21
-9.534633
0
LINE
8
layer0
10
3.8963377
20
-9.534633
11
3.7207892
21
-9.604464
0
LINE
8
layer0
10
3.7207892
20
-9.604464
11
3.5440124
21
-9.6711245
0
LINE
8
layer0
10
3.5440124
20
-9.6711245
11
3.5059636
21
-9.6857146
0
LINE
8
layer0
10
3.5059636
20
-9.6857146
11
3.4931191
21
-9.6960205
0
LINE
8
layer0
10
3.4931191
20
-9.6960205
11
3.4823417
21
-9.7110807
0
LINE
8
layer0
10
3.4823417
20
-9.7110807
11
3.4738236
21
-9.7308101
0
LINE
8
layer0
10
3.4738236
20
-9.7308101
11
3.4677497
21
-9.7551048
0
LINE
8
layer0
10
3.4677497
20
-9.7551048
11
3.4643029
21
-9.7838833
0
LINE
8
layer0
10
3.4643029
20
-9.7838833
11
3.4636776
21
-9.817038
0
LINE
8
layer0
10
3.4636776
20
-9.817038
11
3.4660587
21
-9.8544653
0
LINE
8
layer0
10
3.4660587
20
-9.8544653
11
3.4914757
21
-10.0210314
0
LINE
8
layer0
10
3.4914757
20
-10.0210314
11
3.5020249
21
-10.1200147
0
LINE
8
layer0
10
3.5020249
20
-10.1200147
11
3.5097344
21
-10.2396269
0
LINE
8
layer0
10
3.5097344
20
-10.2396269
11
3.5128099
21
-10.3759838
0
LINE
8
layer0
10
3.5128099
20
-10.3759838
11
3.5098093
21
-10.5318961
0
LINE
8
layer0
10
3.5098093
20
-10.5318961
11
3.4992845
21
-10.7040964
0
LINE
8
layer0
10
3.4992845
20
-10.7040964
11
3.4795873
21
-10.895057
0
LINE
8
layer0
10
3.4795873
20
-10.895057
11
3.4659184
21
-10.996441
0
LINE
8
layer0
10
3.4659184
20
-10.996441
11
3.4349787
21
-11.1844005
0
ARC
8
layer0
10
-7e-7
20
0.0000045
40
11.7
50
284.6918144
51
287.072886
0
LINE
8
layer0
10
2.9673504
20
-11.3174522
11
2.842097
21
-11.1739335
0
LINE
8
layer0
10
2.842097
20
-11.1739335
11
2.7771037
21
-11.0949308
0
LINE
8
layer0
10
2.7771037
20
-11.0949308
11
2.659829
21
-10.9429421
0
LINE
8
layer0
10
2.659829
20
-10.9429421
11
2.5602288
21
-10.802075
0
LINE
8
layer0
10
2.5602288
20
-10.802075
11
2.4756004
21
-10.6710953
0
LINE
8
layer0
10
2.4756004
20
-10.6710953
11
2.4064326
21
-10.5535433
0
LINE
8
layer0
10
2.4064326
20
-10.5535433
11
2.3500196
21
-10.4477885
0
LINE
8
layer0
10
2.3500196
20
-10.4477885
11
2.3068808
21
-10.3580777
0
LINE
8
layer0
10
2.3068808
20
-10.3580777
11
2.240805
21
-10.20308
0
LINE
8
layer0
10
2.240805
20
-10.20308
11
2.2231265
21
-10.1700052
0
LINE
8
layer0
10
2.2231265
20
-10.1700052
11
2.2051411
21
-10.1421457
0
LINE
8
layer0
10
2.2051411
20
-10.1421457
11
2.1870607
21
-10.1194922
0
LINE
8
layer0
10
2.1870607
20
-10.1194922
11
2.169107
21
-10.102034
0
LINE
8
layer0
10
2.169107
20
-10.102034
11
2.1514786
21
-10.0897439
0
LINE
8
layer0
10
2.1514786
20
-10.0897439
11
2.1343873
21
-10.082613
0
LINE
8
layer0
10
2.1343873
20
-10.082613
11
2.1180414
21
-10.0806125
0
LINE
8
layer0
10
2.1180414
20
-10.0806125
11
2.0780109
21
-10.0882379
0
LINE
8
layer0
10
2.0780109
20
-10.0882379
11
1.89262
21
-10.1246229
0
LINE
8
layer0
10
1.89262
20
-10.1246229
11
1.7066044
21
-10.1576658
0
LINE
8
layer0
10
1.7066044
20
-10.1576658
11
1.6665225
21
-10.165016
0
LINE
8
layer0
10
1.6665225
20
-10.165016
11
1.6520031
21
-10.1727863
0
LINE
8
layer0
10
1.6520031
20
-10.1727863
11
1.6386419
21
-10.1856097
0
LINE
8
layer0
10
1.6386419
20
-10.1856097
11
1.6266435
21
-10.203438
0
LINE
8
layer0
10
1.6266435
20
-10.203438
11
1.6162089
21
-10.2262029
0
LINE
8
layer0
10
1.6162089
20
-10.2262029
11
1.6075328
21
-10.253858
0
LINE
8
layer0
10
1.6075328
20
-10.253858
11
1.6008259
21
-10.2863334
0
LINE
8
layer0
10
1.6008259
20
-10.2863334
11
1.5962892
21
-10.3235609
0
LINE
8
layer0
10
1.5962892
20
-10.3235609
11
1.590667
21
-10.4919613
0
LINE
8
layer0
10
1.590667
20
-10.4919613
11
1.5828485
21
-10.5911976
0
LINE
8
layer0
10
1.5828485
20
-10.5911976
11
1.568448
21
-10.7101898
0
LINE
8
layer0
10
1.568448
20
-10.7101898
11
1.5464156
21
-10.84479
0
LINE
8
layer0
10
1.5464156
20
-10.84479
11
1.5148173
21
-10.9974963
0
LINE
8
layer0
10
1.5148173
20
-10.9974963
11
1.47283
21
-11.1648307
0
LINE
8
layer0
10
1.47283
20
-11.1648307
11
1.4183793
21
-11.3489204
0
LINE
8
layer0
10
1.4183793
20
-11.3489204
11
1.3863138
21
-11.4460665
0
LINE
8
layer0
10
1.3863138
20
-11.4460665
11
1.3213635
21
-11.6251405
0
ARC
8
layer0
10
-5e-7
20
0.0000045
40
11.7
50
274.1035821
51
276.4846541
0
LINE
8
layer0
10
0.8372492
20
-11.6700003
11
0.7405
21
-11.50591
0
LINE
8
layer0
10
0.7405
20
-11.50591
11
0.69113
21
-11.41631
0
LINE
8
layer0
10
0.69113
20
-11.41631
11
0.60378
21
-11.24536
0
LINE
8
layer0
10
0.60378
20
-11.24536
11
0.53176
21
-11.08859
0
LINE
8
layer0
10
0.53176
20
-11.08859
11
0.47264
21
-10.94429
0
LINE
8
layer0
10
0.47264
20
-10.94429
11
0.42625
21
-10.81603
0
LINE
8
layer0
10
0.42625
20
-10.81603
11
0.39023
21
-10.70171
0
LINE
8
layer0
10
0.39023
20
-10.70171
11
0.36431
21
-10.6056
0
LINE
8
layer0
10
0.36431
20
-10.6056
11
0.32784
21
-10.4411
0
LINE
8
layer0
10
0.32784
20
-10.4411
11
0.31654
21
-10.40534
0
LINE
8
layer0
10
0.31654
20
-10.40534
11
0.30398
21
-10.37465
0
LINE
8
layer0
10
0.30398
20
-10.37465
11
0.29037
21
-10.34906
0
LINE
8
layer0
10
0.29037
20
-10.34906
11
0.27593
21
-10.3286
0
LINE
8
layer0
10
0.27593
20
-10.3286
11
0.26086
21
-10.31328
0
LINE
8
layer0
10
0.26086
20
-10.31328
11
0.24537
21
-10.30313
0
LINE
8
layer0
10
0.24537
20
-10.30313
11
0.22967
21
-10.29816
0
LINE
8
layer0
10
0.22967
20
-10.29816
11
0.18892
21
-10.2983
0
LINE
8
layer0
10
0.18892
20
-10.2983
11
0
21
-10.3
0
LINE
8
layer0
10
0
20
-10.3
11
-0.18892
21
-10.2983
0
LINE
8
layer0
10
-0.18892
20
-10.2983
11
-0.22967
21
-10.29816
0
LINE
8
layer0
10
-0.22967
20
-10.29816
11
-0.24537
21
-10.30313
0
LINE
8
layer0
10
-0.24537
20
-10.30313
11
-0.26086
21
-10.31328
0
LINE
8
layer0
10
-0.26086
20
-10.31328
11
-0.27593
21
-10.3286
0
LINE
8
layer0
10
-0.27593
20
-10.3286
11
-0.29037
21
-10.34906
0
LINE
8
layer0
10
-0.29037
20
-10.34906
11
-0.30398
21
-10.37465
0
LINE
8
layer0
10
-0.30398
20
-10.37465
11
-0.31654
21
-10.40534
0
LINE
8
layer0
10
-0.31654
20
-10.40534
11
-0.32784
21
-10.4411
0
LINE
8
layer0
10
-0.32784
20
-10.4411
11
-0.36431
21
-10.6056
0
LINE
8
layer0
10
-0.36431
20
-10.6056
11
-0.39023
21
-10.70171
0
LINE
8
layer0
10
-0.39023
20
-10.70171
11
-0.42625
21
-10.81603
0
LINE
8
layer0
10
-0.42625
20
-10.81603
11
-0.47264
21
-10.94429
0
LINE
8
layer0
10
-0.47264
20
-10.94429
11
-0.53176
21
-11.08859
0
LINE
8
layer0
10
-0.53176
20
-11.08859
11
-0.60378
21
-11.24536
0
LINE
8
layer0
10
-0.60378
20
-11.24536
11
-0.69113
21
-11.41631
0
LINE
8
layer0
10
-0.69113
20
-11.41631
11
-0.7405
21
-11.50591
0
LINE
8
layer0
10
-0.7405
20
-11.50591
11
-0.8372492
21
-11.6700003
0
ARC
8
layer0
10
5e-7
20
0.0000045
40
11.7
50
263.5153459
51
265.8964179
0
LINE
8
layer0
10
-1.3213635
20
-11.6251405
11
-1.3863138
21
-11.4460665
0
LINE
8
layer0
10
-1.3863138
20
-11.4460665
11
-1.4183793
21
-11.3489204
0
LINE
8
layer0
10
-1.4183793
20
-11.3489204
11
-1.47283
21
-11.1648307
0
LINE
8
layer0
10
-1.47283
20
-11.1648307
11
-1.5148173
21
-10.9974963
0
LINE
8
layer0
10
-1.5148173
20
-10.9974963
11
-1.5464156
21
-10.84479
0
LINE
8
layer0
10
-1.5464156
20
-10.84479
11
-1.568448
21
-10.7101898
0
LINE
8
layer0
10
-1.568448
20
-10.7101898
11
-1.5828485
21
-10.5911976
0
LINE
8
layer0
10
-1.5828485
20
-10.5911976
11
-1.590667
21
-10.4919613
0
LINE
8
layer0
10
-1.590667
20
-10.4919613
11
-1.5962892
21
-10.3235609
0
LINE
8
layer0
10
-1.5962892
20
-10.3235609
11
-1.6008259
21
-10.2863334
0
LINE
8
layer0
10
-1.6008259
20
-10.2863334
11
-1.6075328
21
-10.253858
0
LINE
8
layer0
10
-1.6075328
20
-10.253858
11
-1.6162089
21
-10.2262029
0
LINE
8
layer0
10
-1.6162089
20
-10.2262029
11
-1.6266435
21
-10.203438
0
LINE
8
layer0
10
-1.6266435
20
-10.203438
11
-1.6386419
21
-10.1856097
0
LINE
8
layer0
10
-1.6386419
20
-10.1856097
11
-1.6520031
21
-10.1727863
0
LINE
8
layer0
10
-1.6520031
20
-10.1727863
11
-1.6665225
21
-10.165016
0
LINE
8
layer0
10
-1.6665225
20
-10.165016
11
-1.7066044
21
-10.1576658
0
LINE
8
layer0
10
-1.7066044
20
-10.1576658
11
-1.89262
21
-10.1246229
0
LINE
8
layer0
10
-1.89262
20
-10.1246229
11
-2.0780109
21
-10.0882379
0
LINE
8
layer0
10
-2.0780109
20
-10.0882379
11
-2.1180414
21
-10.0806125
0
LINE
8
layer0
10
-2.1180414
20
-10.0806125
11
-2.1343873
21
-10.082613
0
LINE
8
layer0
10
-2.1343873
20
-10.082613
11
-2.1514786
21
-10.0897439
0
LINE
8
layer0
10
-2.1514786
20
-10.0897439
11
-2.169107
21
-10.102034
0
LINE
8
layer0
10
-2.169107
20
-10.102034
11
-2.1870607
21
-10.1194922
0
LINE
8
layer0
10
-2.1870607
20
-10.1194922
11
-2.2051411
21
-10.1421457
0
LINE
8
layer0
10
-2.2051411
20
-10.1421457
11
-2.2231265
21
-10.1700052
0
LINE
8
layer0
10
-2.2231265
20
-10.1700052
11
-2.240805
21
-10.20308
0
LINE
8
layer0
10
-2.240805
20
-10.20308
11
-2.3068808
21
-10.3580777
0
LINE
8
layer0
10
-2.3068808
20
-10.3580777
11
-2.3500196
21
-10.4477885
0
LINE
8
layer0
10
-2.3500196
20
-10.4477885
11
-2.4064326
21
-10.5535433
0
LINE
8
layer0
10
-2.4064326
20
-10.5535433
11
-2.4756004
21
-10.6710953
0
LINE
8
layer0
10
-2.4756004
20
-10.6710953
11
-2.5602288
21
-10.802075
0
LINE
8
layer0
10
-2.5602288
20
-10.802075
11
-2.659829
21
-10.9429421
0
LINE
8
layer0
10
-2.659829
20
-10.9429421
11
-2.7771037
21
-11.0949308
0
LINE
8
layer0
10
-2.7771037
20
-11.0949308
11
-2.842097
21
-11.1739335
0
LINE
8
layer0
10
-2.842097
20
-11.1739335
11
-2.9673504
21
-11.3174522
0
ARC
8
layer0
10
7e-7
20
0.0000045
40
11.7
50
252.927114
51
255.3081856
0
LINE
8
layer0
10
-3.4349787
20
-11.1844005
11
-3.4659184
21
-10.996441
0
LINE
8
layer0
10
-3.4659184
20
-10.996441
11
-3.4795873
21
-10.895057
0
LINE
8
layer0
10
-3.4795873
20
-10.895057
11
-3.4992845
21
-10.7040964
0
LINE
8
layer0
10
-3.4992845
20
-10.7040964
11
-3.5098093
21
-10.5318961
0
LINE
8
layer0
10
-3.5098093
20
-10.5318961
11
-3.5128099
21
-10.3759838
0
LINE
8
layer0
10
-3.5128099
20
-10.3759838
11
-3.5097344
21
-10.2396269
0
LINE
8
layer0
10
-3.5097344
20
-10.2396269
11
-3.5020249
21
-10.1200147
0
LINE
8
layer0
10
-3.5020249
20
-10.1200147
11
-3.4914757
21
-10.0210314
0
LINE
8
layer0
10
-3.4914757
20
-10.0210314
11
-3.4660587
21
-9.8544653
0
LINE
8
layer0
10
-3.4660587
20
-9.8544653
11
-3.4636776
21
-9.817038
0
LINE
8
layer0
10
-3.4636776
20
-9.817038
11
-3.4643029
21
-9.7838833
0
LINE
8
layer0
10
-3.4643029
20
-9.7838833
11
-3.4677497
21
-9.7551048
0
LINE
8
layer0
10
-3.4677497
20
-9.7551048
11
-3.4738236
21
-9.7308101
0
LINE
8
layer0
10
-3.4738236
20
-9.7308101
11
-3.4823417
21
-9.7110807
0
LINE
8
layer0
10
-3.4823417
20
-9.7110807
11
-3.4931191
21
-9.6960205
0
LINE
8
layer0
10
-3.4931191
20
-9.6960205
11
-3.5059636
21
-9.6857146
0
LINE
8
layer0
10
-3.5059636
20
-9.6857146
11
-3.5440124
21
-9.6711245
0
LINE
8
layer0
10
-3.5440124
20
-9.6711245
11
-3.7207892
21
-9.604464
0
LINE
8
layer0
10
-3.7207892
20
-9.604464
11
-3.8963377
21
-9.534633
0
LINE
8
layer0
10
-3.8963377
20
-9.534633
11
-3.9342854
21
-9.5197818
0
LINE
8
layer0
10
-3.9342854
20
-9.5197818
11
-3.9507206
21
-9.5187447
0
LINE
8
layer0
10
-3.9507206
20
-9.5187447
11
-3.9688312
21
-9.5226137
0
LINE
8
layer0
10
-3.9688312
20
-9.5226137
11
-3.9884177
21
-9.5314553
0
LINE
8
layer0
10
-3.9884177
20
-9.5314553
11
-4.0092736
21
-9.5453173
0
LINE
8
layer0
10
-4.0092736
20
-9.5453173
11
-4.0312088
21
-9.5642628
0
LINE
8
layer0
10
-4.0312088
20
-9.5642628
11
-4.0540071
21
-9.5883432
0
LINE
8
layer0
10
-4.0540071
20
-9.5883432
11
-4.0774621
21
-9.6176063
0
LINE
8
layer0
10
-4.0774621
20
-9.6176063
11
-4.1708936
21
-9.7578235
0
LINE
8
layer0
10
-4.1708936
20
-9.7578235
11
-4.2297822
21
-9.83808
0
LINE
8
layer0
10
-4.2297822
20
-9.83808
11
-4.304667
21
-9.9316683
0
LINE
8
layer0
10
-4.304667
20
-9.9316683
11
-4.3942572
21
-10.0345092
0
LINE
8
layer0
10
-4.3942572
20
-10.0345092
11
-4.5015122
21
-10.1477084
0
LINE
8
layer0
10
-4.5015122
20
-10.1477084
11
-4.6253007
21
-10.2678754
0
LINE
8
layer0
10
-4.6253007
20
-10.2678754
11
-4.7685064
21
-10.3957271
0
LINE
8
layer0
10
-4.7685064
20
-10.3957271
11
-4.8469098
21
-10.4614421
0
LINE
8
layer0
10
-4.8469098
20
-10.4614421
11
-4.996402
21
-10.5795019
0
ARC
8
layer0
10
0.0000027
20
0.0000038
40
11.7
50
242.3388721
51
244.7199441
0
LINE
8
layer0
10
-5.4316199
20
-10.3627891
11
-5.4274953
21
-10.1723449
0
LINE
8
layer0
10
-5.4274953
20
-10.1723449
11
-5.4223022
21
-10.0701754
0
LINE
8
layer0
10
-5.4223022
20
-10.0701754
11
-5.4065751
21
-9.878847
0
LINE
8
layer0
10
-5.4065751
20
-9.878847
11
-5.385279
21
-9.7076448
0
LINE
8
layer0
10
-5.385279
20
-9.7076448
11
-5.3595796
21
-9.5538358
0
LINE
8
layer0
10
-5.3595796
20
-9.5538358
11
-5.331501
21
-9.4203658
0
LINE
8
layer0
10
-5.331501
20
-9.4203658
11
-5.3019441
21
-9.3042068
0
LINE
8
layer0
10
-5.3019441
20
-9.3042068
11
-5.2733863
21
-9.2088474
0
LINE
8
layer0
10
-5.2733863
20
-9.2088474
11
-5.2177957
21
-9.0497877
0
LINE
8
layer0
10
-5.2177957
20
-9.0497877
11
-5.2085779
21
-9.0134352
0
LINE
8
layer0
10
-5.2085779
20
-9.0134352
11
-5.2031004
21
-8.9807301
0
LINE
8
layer0
10
-5.2031004
20
-8.9807301
11
-5.2012005
21
-8.9518083
0
LINE
8
layer0
10
-5.2012005
20
-8.9518083
11
-5.2027068
21
-8.9268111
0
LINE
8
layer0
10
-5.2027068
20
-8.9268111
11
-5.2074547
21
-8.9058525
0
LINE
8
layer0
10
-5.2074547
20
-8.9058525
11
-5.2152812
21
-8.8890683
0
LINE
8
layer0
10
-5.2152812
20
-8.8890683
11
-5.2260133
21
-8.8765778
0
LINE
8
layer0
10
-5.2260133
20
-8.8765778
11
-5.2607333
21
-8.8552447
0
LINE
8
layer0
10
-5.2607333
20
-8.8552447
11
-5.4222513
21
-8.7572365
0
LINE
8
layer0
10
-5.4222513
20
-8.7572365
11
-5.5819794
21
-8.6563376
0
LINE
8
layer0
10
-5.5819794
20
-8.6563376
11
-5.616552
21
-8.6347664
0
LINE
8
layer0
10
-5.616552
20
-8.6347664
11
-5.6325168
21
-8.630727
0
LINE
8
layer0
10
-5.6325168
20
-8.630727
11
-5.6510299
21
-8.6312023
0
LINE
8
layer0
10
-5.6510299
20
-8.6312023
11
-5.6719077
21
-8.6362943
0
LINE
8
layer0
10
-5.6719077
20
-8.6362943
11
-5.6949556
21
-8.646088
0
LINE
8
layer0
10
-5.6949556
20
-8.646088
11
-5.7199984
21
-8.6606804
0
LINE
8
layer0
10
-5.7199984
20
-8.6606804
11
-5.7468334
21
-8.6801615
0
LINE
8
layer0
10
-5.7468334
20
-8.6801615
11
-5.775266
21
-8.7046166
0
LINE
8
layer0
10
-5.775266
20
-8.7046166
11
-5.8928716
21
-8.8252784
0
LINE
8
layer0
10
-5.8928716
20
-8.8252784
11
-5.9655046
21
-8.8933476
0
LINE
8
layer0
10
-5.9655046
20
-8.8933476
11
-6.0563111
21
-8.9715823
0
LINE
8
layer0
10
-6.0563111
20
-8.9715823
11
-6.1632729
21
-9.05621
0
LINE
8
layer0
10
-6.1632729
20
-9.05621
11
-6.2895019
21
-9.1477737
0
LINE
8
layer0
10
-6.2895019
20
-9.1477737
11
-6.4332633
21
-9.2431486
0
LINE
8
layer0
10
-6.4332633
20
-9.2431486
11
-6.5975233
21
-9.3425093
0
LINE
8
layer0
10
-6.5975233
20
-9.3425093
11
-6.6866669
21
-9.3926988
0
LINE
8
layer0
10
-6.6866669
20
-9.3926988
11
-6.8553071
21
-9.4812793
0
ARC
8
layer0
10
0.0000031
20
0.0000034
40
11.7
50
231.7506385
51
234.1317103
0
LINE
8
layer0
10
-7.2432937
20
-9.1882854
11
-7.2042453
21
-9.0018417
0
LINE
8
layer0
10
-7.2042453
20
-9.0018417
11
-7.1803671
21
-8.9023662
0
LINE
8
layer0
10
-7.1803671
20
-8.9023662
11
-7.1297512
21
-8.7171853
0
LINE
8
layer0
10
-7.1297512
20
-8.7171853
11
-7.0773594
21
-8.5528113
0
LINE
8
layer0
10
-7.0773594
20
-8.5528113
11
-7.0238353
21
-8.4063434
0
LINE
8
layer0
10
-7.0238353
20
-8.4063434
11
-6.9717097
21
-8.2803054
0
LINE
8
layer0
10
-6.9717097
20
-8.2803054
11
-6.921312
21
-8.1715554
0
LINE
8
layer0
10
-6.921312
20
-8.1715554
11
-6.8757182
21
-8.083067
0
LINE
8
layer0
10
-6.8757182
20
-8.083067
11
-6.7918469
21
-7.9369304
0
LINE
8
layer0
10
-6.7918469
20
-7.9369304
11
-6.7761063
21
-7.9028907
0
LINE
8
layer0
10
-6.7761063
20
-7.9028907
11
-6.7647126
21
-7.8717489
0
LINE
8
layer0
10
-6.7647126
20
-7.8717489
11
-6.7575306
21
-7.8436686
0
LINE
8
layer0
10
-6.7575306
20
-7.8436686
11
-6.7544181
21
-7.8188203
0
LINE
8
layer0
10
-6.7544181
20
-7.8188203
11
-6.7552339
21
-7.7973461
0
LINE
8
layer0
10
-6.7552339
20
-7.7973461
11
-6.7598432
21
-7.7794096
0
LINE
8
layer0
10
-6.7598432
20
-7.7794096
11
-6.7680974
21
-7.7651597
0
LINE
8
layer0
10
-6.7680974
20
-7.7651597
11
-6.7983063
21
-7.7378101
0
LINE
8
layer0
10
-6.7983063
20
-7.7378101
11
-6.9390651
21
-7.6117918
0
LINE
8
layer0
10
-6.9390651
20
-7.6117918
11
-7.0775334
21
-7.483261
0
LINE
8
layer0
10
-7.0775334
20
-7.483261
11
-7.1075537
21
-7.4557044
0
LINE
8
layer0
10
-7.1075537
20
-7.4557044
11
-7.1225044
21
-7.4488002
0
LINE
8
layer0
10
-7.1225044
20
-7.4488002
11
-7.1407897
21
-7.4458656
0
LINE
8
layer0
10
-7.1407897
20
-7.4458656
11
-7.1622476
21
-7.4470347
0
LINE
8
layer0
10
-7.1622476
20
-7.4470347
11
-7.1867027
21
-7.4524266
0
LINE
8
layer0
10
-7.1867027
20
-7.4524266
11
-7.2140004
21
-7.4621689
0
LINE
8
layer0
10
-7.2140004
20
-7.4621689
11
-7.2439581
21
-7.4763874
0
LINE
8
layer0
10
-7.2439581
20
-7.4763874
11
-7.2764003
21
-7.4952016
0
LINE
8
layer0
10
-7.2764003
20
-7.4952016
11
-7.4141749
21
-7.5921989
0
LINE
8
layer0
10
-7.4141749
20
-7.5921989
11
-7.4980789
21
-7.6457629
0
LINE
8
layer0
10
-7.4980789
20
-7.6457629
11
-7.6017148
21
-7.7059799
0
LINE
8
layer0
10
-7.6017148
20
-7.7059799
11
-7.7224057
21
-7.7695124
0
LINE
8
layer0
10
-7.7224057
20
-7.7695124
11
-7.8633102
21
-7.8363225
0
LINE
8
layer0
10
-7.8633102
20
-7.8363225
11
-8.0221488
21
-7.9036574
0
LINE
8
layer0
10
-8.0221488
20
-7.9036574
11
-8.2018695
21
-7.9711436
0
LINE
8
layer0
10
-8.2018695
20
-7.9711436
11
-8.2987175
21
-8.0040985
0
LINE
8
layer0
10
-8.2987175
20
-8.0040985
11
-8.480763
21
-8.0601831
0
ARC
8
layer0
10
0.000004
20
0.0000025
40
11.7
50
221.1624009
51
223.5434728
0
LINE
8
layer0
10
-8.8083059
20
-7.7008857
11
-8.7356634
21
-7.5247916
0
LINE
8
layer0
10
-8.7356634
20
-7.5247916
11
-8.6939132
21
-7.4313975
0
LINE
8
layer0
10
-8.6939132
20
-7.4313975
11
-8.6101323
21
-7.2586703
0
LINE
8
layer0
10
-8.6101323
20
-7.2586703
11
-8.5284289
21
-7.106722
0
LINE
8
layer0
10
-8.5284289
20
-7.106722
11
-8.4489027
21
-6.9725831
0
LINE
8
layer0
10
-8.4489027
20
-6.9725831
11
-8.3745053
21
-6.8582691
0
LINE
8
layer0
10
-8.3745053
20
-6.8582691
11
-8.3049828
21
-6.7606314
0
LINE
8
layer0
10
-8.3049828
20
-6.7606314
11
-8.2439057
21
-6.6820276
0
LINE
8
layer0
10
-8.2439057
20
-6.6820276
11
-8.1346099
21
-6.5537905
0
LINE
8
layer0
10
-8.1346099
20
-6.5537905
11
-8.1128826
21
-6.5232227
0
LINE
8
layer0
10
-8.1128826
20
-6.5232227
11
-8.0959606
21
-6.4947047
0
LINE
8
layer0
10
-8.0959606
20
-6.4947047
11
-8.0837411
21
-6.4684223
0
LINE
8
layer0
10
-8.0837411
20
-6.4684223
11
-8.0761158
21
-6.444569
0
LINE
8
layer0
10
-8.0761158
20
-6.444569
11
-8.0729718
21
-6.4233105
0
LINE
8
layer0
10
-8.0729718
20
-6.4233105
11
-8.0742068
21
-6.4048325
0
LINE
8
layer0
10
-8.0742068
20
-6.4048325
11
-8.079702
21
-6.3893085
0
LINE
8
layer0
10
-8.079702
20
-6.3893085
11
-8.1043711
21
-6.3568737
0
LINE
8
layer0
10
-8.1043711
20
-6.3568737
11
-8.2195774
21
-6.2071368
0
LINE
8
layer0
10
-8.2195774
20
-6.2071368
11
-8.3320705
21
-6.0553509
0
LINE
8
layer0
10
-8.3320705
20
-6.0553509
11
-8.3565162
21
-6.0227473
0
LINE
8
layer0
10
-8.3565162
20
-6.0227473
11
-8.3699437
21
-6.0132135
0
LINE
8
layer0
10
-8.3699437
20
-6.0132135
11
-8.3873784
21
-6.006969
0
LINE
8
layer0
10
-8.3873784
20
-6.006969
11
-8.4086857
21
-6.0041752
0
LINE
8
layer0
10
-8.4086857
20
-6.0041752
11
-8.4337152
21
-6.0049817
0
LINE
8
layer0
10
-8.4337152
20
-6.0049817
11
-8.4623383
21
-6.0095422
0
LINE
8
layer0
10
-8.4623383
20
-6.0095422
11
-8.4943985
21
-6.0180139
0
LINE
8
layer0
10
-8.4943985
20
-6.0180139
11
-8.5297454
21
-6.0305465
0
LINE
8
layer0
10
-8.5297454
20
-6.0305465
11
-8.6829973
21
-6.1005762
0
LINE
8
layer0
10
-8.6829973
20
-6.1005762
11
-8.7753151
21
-6.1378109
0
LINE
8
layer0
10
-8.7753151
20
-6.1378109
11
-8.8882513
21
-6.1779595
0
LINE
8
layer0
10
-8.8882513
20
-6.1779595
11
-9.0185612
21
-6.2182334
0
LINE
8
layer0
10
-9.0185612
20
-6.2182334
11
-9.1693428
21
-6.2580148
0
LINE
8
layer0
10
-9.1693428
20
-6.2580148
11
-9.3378497
21
-6.2950166
0
LINE
8
layer0
10
-9.3378497
20
-6.2950166
11
-9.5269109
21
-6.3283302
0
LINE
8
layer0
10
-9.5269109
20
-6.3283302
11
-9.6281653
21
-6.3429281
0
LINE
8
layer0
10
-9.6281653
20
-6.3429281
11
-9.8174166
21
-6.3646071
0
ARC
8
layer0
10
0.0000044
20
0.0000016
40
11.7
50
210.5741655
51
212.9552373
0
LINE
8
layer0
10
-10.0733618
20
-5.9512415
11
-9.969599
21
-5.7914938
0
LINE
8
layer0
10
-9.969599
20
-5.7914938
11
-9.9113985
21
-5.7073615
0
LINE
8
layer0
10
-9.9113985
20
-5.7073615
11
-9.7973056
21
-5.55297
0
LINE
8
layer0
10
-9.7973056
20
-5.55297
11
-9.6890729
21
-5.4186219
0
LINE
8
layer0
10
-9.6890729
20
-5.4186219
11
-9.5862529
21
-5.3013798
0
LINE
8
layer0
10
-9.5862529
20
-5.3013798
11
-9.492117
21
-5.2026828
0
LINE
8
layer0
10
-9.492117
20
-5.2026828
11
-9.4058375
21
-5.1194822
0
LINE
8
layer0
10
-9.4058375
20
-5.1194822
11
-9.3313569
21
-5.0534396
0
LINE
8
layer0
10
-9.3313569
20
-5.0534396
11
-9.2003586
21
-4.9474691
0
LINE
8
layer0
10
-9.2003586
20
-4.9474691
11
-9.1733844
21
-4.9214141
0
LINE
8
layer0
10
-9.1733844
20
-4.9214141
11
-9.1515103
21
-4.8964912
0
LINE
8
layer0
10
-9.1515103
20
-4.8964912
11
-9.1346696
21
-4.8729016
0
LINE
8
layer0
10
-9.1346696
20
-4.8729016
11
-9.122791
21
-4.8508556
0
LINE
8
layer0
10
-9.122791
20
-4.8508556
11
-9.1157944
21
-4.8305368
0
LINE
8
layer0
10
-9.1157944
20
-4.8305368
11
-9.1136129
21
-4.8121464
0
LINE
8
layer0
10
-9.1136129
20
-4.8121464
11
-9.1161621
21
-4.7958771
0
LINE
8
layer0
10
-9.1161621
20
-4.7958771
11
-9.1344512
21
-4.7594616
0
LINE
8
layer0
10
-9.1344512
20
-4.7594616
11
-9.2201819
21
-4.5911051
0
LINE
8
layer0
10
-9.2201819
20
-4.5911051
11
-9.302869
21
-4.4212331
0
LINE
8
layer0
10
-9.302869
20
-4.4212331
11
-9.3209075
21
-4.3846928
0
LINE
8
layer0
10
-9.3209075
20
-4.3846928
11
-9.3323546
21
-4.372854
0
LINE
8
layer0
10
-9.3323546
20
-4.372854
11
-9.348345
21
-4.3635122
0
LINE
8
layer0
10
-9.348345
20
-4.3635122
11
-9.3687762
21
-4.3568508
0
LINE
8
layer0
10
-9.3687762
20
-4.3568508
11
-9.3935277
21
-4.3530444
0
LINE
8
layer0
10
-9.3935277
20
-4.3530444
11
-9.4225014
21
-4.3522677
0
LINE
8
layer0
10
-9.4225014
20
-4.3522677
11
-9.4555724
21
-4.3547042
0
LINE
8
layer0
10
-9.4555724
20
-4.3547042
11
-9.4926203
21
-4.3605284
0
LINE
8
layer0
10
-9.4926203
20
-4.3605284
11
-9.6561307
21
-4.4012058
0
LINE
8
layer0
10
-9.6561307
20
-4.4012058
11
-9.7537184
21
-4.420843
0
LINE
8
layer0
10
-9.7537184
20
-4.420843
11
-9.872109
21
-4.4395561
0
LINE
8
layer0
10
-9.872109
20
-4.4395561
11
-10.0076004
21
-4.4551999
0
LINE
8
layer0
10
-10.0076004
20
-4.4551999
11
-10.1631245
21
-4.4665978
0
LINE
8
layer0
10
-10.1631245
20
-4.4665978
11
-10.3355614
21
-4.4720066
0
LINE
8
layer0
10
-10.3355614
20
-4.4720066
11
-10.5275248
21
-4.470013
0
LINE
8
layer0
10
-10.5275248
20
-4.470013
11
-10.6297375
21
-4.465757
0
LINE
8
layer0
10
-10.6297375
20
-4.465757
11
-10.81975
21
-4.452292
0
ARC
8
layer0
10
0.0000037
20
0.0000029
40
11.7
50
199.9859415
51
202.3670132
0
LINE
8
layer0
10
-10.9953814
20
-3.9989349
11
-10.8640318
21
-3.8609736
0
LINE
8
layer0
10
-10.8640318
20
-3.8609736
11
-10.791363
21
-3.7889681
0
LINE
8
layer0
10
-10.791363
20
-3.7889681
11
-10.6508434
21
-3.6581699
0
LINE
8
layer0
10
-10.6508434
20
-3.6581699
11
-10.5197672
21
-3.5459971
0
LINE
8
layer0
10
-10.5197672
20
-3.5459971
11
-10.3971547
21
-3.4496444
0
LINE
8
layer0
10
-10.3971547
20
-3.4496444
11
-10.2864862
21
-3.3699253
0
LINE
8
layer0
10
-10.2864862
20
-3.3699253
11
-10.1863876
21
-3.3039952
0
LINE
8
layer0
10
-10.1863876
20
-3.3039952
11
-10.1010399
21
-3.2527629
0
LINE
8
layer0
10
-10.1010399
20
-3.2527629
11
-9.9528
21
-3.1726676
0
LINE
8
layer0
10
-9.9528
20
-3.1726676
11
-9.9214976
21
-3.1520127
0
LINE
8
layer0
10
-9.9214976
20
-3.1520127
11
-9.8954163
21
-3.1315335
0
LINE
8
layer0
10
-9.8954163
20
-3.1315335
11
-9.8745278
21
-3.11144
0
LINE
8
layer0
10
-9.8745278
20
-3.11144
11
-9.8588005
21
-3.0919521
0
LINE
8
layer0
10
-9.8588005
20
-3.0919521
11
-9.8481894
21
-3.0732649
0
LINE
8
layer0
10
-9.8481894
20
-3.0732649
11
-9.842666
21
-3.0555885
0
LINE
8
layer0
10
-9.842666
20
-3.0555885
11
-9.8421822
21
-3.0391278
0
LINE
8
layer0
10
-9.8421822
20
-3.0391278
11
-9.8534686
21
-2.9999717
0
LINE
8
layer0
10
-9.8534686
20
-2.9999717
11
-9.9068041
21
-2.8187288
0
LINE
8
layer0
10
-9.9068041
20
-2.8187288
11
-9.9568694
21
-2.6365555
0
LINE
8
layer0
10
-9.9568694
20
-2.6365555
11
-9.9678865
21
-2.5973228
0
LINE
8
layer0
10
-9.9678865
20
-2.5973228
11
-9.9769633
21
-2.5835822
0
LINE
8
layer0
10
-9.9769633
20
-2.5835822
11
-9.9909649
21
-2.5714612
0
LINE
8
layer0
10
-9.9909649
20
-2.5714612
11
-10.0098242
21
-2.561159
0
LINE
8
layer0
10
-10.0098242
20
-2.561159
11
-10.0334548
21
-2.5528694
0
LINE
8
layer0
10
-10.0334548
20
-2.5528694
11
-10.0617925
21
-2.546782
0
LINE
8
layer0
10
-10.0617925
20
-2.546782
11
-10.0947481
21
-2.5431002
0
LINE
8
layer0
10
-10.0947481
20
-2.5431002
11
-10.1322354
21
-2.5420177
0
LINE
8
layer0
10
-10.1322354
20
-2.5420177
11
-10.3004362
21
-2.5519575
0
LINE
8
layer0
10
-10.3004362
20
-2.5519575
11
-10.3999706
21
-2.5533287
0
LINE
8
layer0
10
-10.3999706
20
-2.5533287
11
-10.5197839
21
-2.5499689
0
LINE
8
layer0
10
-10.5197839
20
-2.5499689
11
-10.6558428
21
-2.5404499
0
LINE
8
layer0
10
-10.6558428
20
-2.5404499
11
-10.8108132
21
-2.5230763
0
LINE
8
layer0
10
-10.8108132
20
-2.5230763
11
-10.9813079
21
-2.4967078
0
LINE
8
layer0
10
-10.9813079
20
-2.4967078
11
-11.1696364
21
-2.459475
0
LINE
8
layer0
10
-11.1696364
20
-2.459475
11
-11.2693267
21
-2.4365098
0
LINE
8
layer0
10
-11.2693267
20
-2.4365098
11
-11.4536297
21
-2.3883594
0
ARC
8
layer0
10
0.0000043
20
0.0000018
40
11.7
50
189.397704
51
191.7787759
0
LINE
8
layer0
10
-11.5429665
20
-1.9104494
11
-11.3885031
21
-1.7989726
0
LINE
8
layer0
10
-11.3885031
20
-1.7989726
11
-11.3038406
21
-1.741546
0
LINE
8
layer0
10
-11.3038406
20
-1.741546
11
-11.1416795
21
-1.6387953
0
LINE
8
layer0
10
-11.1416795
20
-1.6387953
11
-10.9922234
21
-1.5526176
0
LINE
8
layer0
10
-10.9922234
20
-1.5526176
11
-10.8539939
21
-1.4804355
0
LINE
8
layer0
10
-10.8539939
20
-1.4804355
11
-10.7305613
21
-1.422409
0
LINE
8
layer0
10
-10.7305613
20
-1.422409
11
-10.6200525
21
-1.3759946
0
LINE
8
layer0
10
-10.6200525
20
-1.3759946
11
-10.5267441
21
-1.3413172
0
LINE
8
layer0
10
-10.5267441
20
-1.3413172
11
-10.3663108
21
-1.2898247
0
LINE
8
layer0
10
-10.3663108
20
-1.2898247
11
-10.331746
21
-1.2752733
0
LINE
8
layer0
10
-10.331746
20
-1.2752733
11
-10.3023458
21
-1.2599352
0
LINE
8
layer0
10
-10.3023458
20
-1.2599352
11
-10.2781208
21
-1.2440221
0
LINE
8
layer0
10
-10.2781208
20
-1.2440221
11
-10.2590804
21
-1.2277559
0
LINE
8
layer0
10
-10.2590804
20
-1.2277559
11
-10.2452162
21
-1.2113366
0
LINE
8
layer0
10
-10.2452162
20
-1.2113366
11
-10.2365388
21
-1.1949762
0
LINE
8
layer0
10
-10.2365388
20
-1.1949762
11
-10.2330386
21
-1.1788846
0
LINE
8
layer0
10
-10.2330386
20
-1.1788846
11
-10.2369379
21
-1.1383213
0
LINE
8
layer0
10
-10.2369379
20
-1.1383213
11
-10.256062
21
-0.9503641
0
LINE
8
layer0
10
-10.256062
20
-0.9503641
11
-10.2718006
21
-0.7620931
0
LINE
8
layer0
10
-10.2718006
20
-0.7620931
11
-10.2754211
21
-0.7215041
0
LINE
8
layer0
10
-10.2754211
20
-0.7215041
11
-10.2818186
21
-0.7063296
0
LINE
8
layer0
10
-10.2818186
20
-0.7063296
11
-10.2933545
21
-0.6918422
0
LINE
8
layer0
10
-10.2933545
20
-0.6918422
11
-10.3099996
21
-0.67825
0
LINE
8
layer0
10
-10.3099996
20
-0.67825
11
-10.3317047
21
-0.6657595
0
LINE
8
layer0
10
-10.3317047
20
-0.6657595
11
-10.3584413
21
-0.6545687
0
LINE
8
layer0
10
-10.3584413
20
-0.6545687
11
-10.3901593
21
-0.644894
0
LINE
8
layer0
10
-10.3901593
20
-0.644894
11
-10.4268094
21
-0.6369417
0
LINE
8
layer0
10
-10.4268094
20
-0.6369417
11
-10.5939727
21
-0.6158054
0
LINE
8
layer0
10
-10.5939727
20
-0.6158054
11
-10.6920643
21
-0.5988639
0
LINE
8
layer0
10
-10.6920643
20
-0.5988639
11
-10.8092201
21
-0.5735457
0
LINE
8
layer0
10
-10.8092201
20
-0.5735457
11
-10.9412133
21
-0.5391879
0
LINE
8
layer0
10
-10.9412133
20
-0.5391879
11
-11.0903527
21
-0.4936344
0
LINE
8
layer0
10
-11.0903527
20
-0.4936344
11
-11.2530991
21
-0.4363865
0
LINE
8
layer0
10
-11.2530991
20
-0.4363865
11
-11.4313795
21
-0.3651824
0
LINE
8
layer0
10
-11.4313795
20
-0.3651824
11
-11.5251525
21
-0.3242903
0
LINE
8
layer0
10
-11.5251525
20
-0.3242903
11
-11.6974697
21
-0.2430941
0
ARC
8
layer0
10
0.0000046
20
1e-7
40
11.7
50
178.8094642
51
181.1905362
0
LINE
8
layer0
10
-11.6974697
20
0.2430941
11
-11.5251525
21
0.3242903
0
LINE
8
layer0
10
-11.5251525
20
0.3242903
11
-11.4313795
21
0.3651824
0
LINE
8
layer0
10
-11.4313795
20
0.3651824
11
-11.2530991
21
0.4363865
0
LINE
8
layer0
10
-11.2530991
20
0.4363865
11
-11.0903527
21
0.4936344
0
LINE
8
layer0
10
-11.0903527
20
0.4936344
11
-10.9412133
21
0.5391879
0
LINE
8
layer0
10
-10.9412133
20
0.5391879
11
-10.8092201
21
0.5735457
0
LINE
8
layer0
10
-10.8092201
20
0.5735457
11
-10.6920643
21
0.5988639
0
LINE
8
layer0
10
-10.6920643
20
0.5988639
11
-10.5939727
21
0.6158054
0
LINE
8
layer0
10
-10.5939727
20
0.6158054
11
-10.4268094
21
0.6369417
0
LINE
8
layer0
10
-10.4268094
20
0.6369417
11
-10.3901593
21
0.644894
0
LINE
8
layer0
10
-10.3901593
20
0.644894
11
-10.3584413
21
0.6545687
0
LINE
8
layer0
10
-10.3584413
20
0.6545687
11
-10.3317047
21
0.6657595
0
LINE
8
layer0
10
-10.3317047
20
0.6657595
11
-10.3099996
21
0.67825
0
LINE
8
layer0
10
-10.3099996
20
0.67825
11
-10.2933545
21
0.6918422
0
LINE
8
layer0
10
-10.2933545
20
0.6918422
11
-10.2818186
21
0.7063296
0
LINE
8
layer0
10
-10.2818186
20
0.7063296
11
-10.2754211
21
0.7215041
0
LINE
8
layer0
10
-10.2754211
20
0.7215041
11
-10.2718006
21
0.7620931
0
LINE
8
layer0
10
-10.2718006
20
0.7620931
11
-10.256062
21
0.9503641
0
LINE
8
layer0
10
-10.256062
20
0.9503641
11
-10.2369379
21
1.1383213
0
LINE
8
layer0
10
-10.2369379
20
1.1383213
11
-10.2330386
21
1.1788846
0
LINE
8
layer0
10
-10.2330386
20
1.1788846
11
-10.2365388
21
1.1949762
0
LINE
8
layer0
10
-10.2365388
20
1.1949762
11
-10.2452162
21
1.2113366
0
LINE
8
layer0
10
-10.2452162
20
1.2113366
11
-10.2590804
21
1.2277559
0
LINE
8
layer0
10
-10.2590804
20
1.2277559
11
-10.2781208
21
1.2440221
0
LINE
8
layer0
10
-10.2781208
20
1.2440221
11
-10.3023458
21
1.2599352
0
LINE
8
layer0
10
-10.3023458
20
1.2599352
11
-10.331746
21
1.2752733
0
LINE
8
layer0
10
-10.331746
20
1.2752733
11
-10.3663108
21
1.2898247
0
LINE
8
layer0
10
-10.3663108
20
1.2898247
11
-10.5267441
21
1.3413172
0
LINE
8
layer0
10
-10.5267441
20
1.3413172
11
-10.6200525
21
1.3759946
0
LINE
8
layer0
10
-10.6200525
20
1.3759946
11
-10.7305613
21
1.422409
0
LINE
8
layer0
10
-10.7305613
20
1.422409
11
-10.8539939
21
1.4804355
0
LINE
8
layer0
10
-10.8539939
20
1.4804355
11
-10.9922234
21
1.5526176
0
LINE
8
layer0
10
-10.9922234
20
1.5526176
11
-11.1416795
21
1.6387953
0
LINE
8
layer0
10
-11.1416795
20
1.6387953
11
-11.3038406
21
1.741546
0
LINE
8
layer0
10
-11.3038406
20
1.741546
11
-11.3885031
21
1.7989726
0
LINE
8
layer0
10
-11.3885031
20
1.7989726
11
-11.5429665
21
1.9104494
0
ARC
8
layer0
10
0.0000044
20
-0.0000017
40
11.7
50
168.2212246
51
170.6022965
0
LINE
8
layer0
10
-11.4536297
20
2.3883594
11
-11.2693267
21
2.4365098
0
LINE
8
layer0
10
-11.2693267
20
2.4365098
11
-11.1696364
21
2.459475
0
LINE
8
layer0
10
-11.1696364
20
2.459475
11
-10.9813079
21
2.4967078
0
LINE
8
layer0
10
-10.9813079
20
2.4967078
11
-10.8108132
21
2.5230763
0
LINE
8
layer0
10
-10.8108132
20
2.5230763
11
-10.6558428
21
2.5404499
0
LINE
8
layer0
10
-10.6558428
20
2.5404499
11
-10.5197839
21
2.5499689
0
LINE
8
layer0
10
-10.5197839
20
2.5499689
11
-10.3999706
21
2.5533287
0
LINE
8
layer0
10
-10.3999706
20
2.5533287
11
-10.3004362
21
2.5519575
0
LINE
8
layer0
10
-10.3004362
20
2.5519575
11
-10.1322354
21
2.5420177
0
LINE
8
layer0
10
-10.1322354
20
2.5420177
11
-10.0947481
21
2.5431002
0
LINE
8
layer0
10
-10.0947481
20
2.5431002
11
-10.0617925
21
2.546782
0
LINE
8
layer0
10
-10.0617925
20
2.546782
11
-10.0334548
21
2.5528694
0
LINE
8
layer0
10
-10.0334548
20
2.5528694
11
-10.0098242
21
2.561159
0
LINE
8
layer0
10
-10.0098242
20
2.561159
11
-9.9909649
21
2.5714612
0
LINE
8
layer0
10
-9.9909649
20
2.5714612
11
-9.9769633
21
2.5835822
0
LINE
8
layer0
10
-9.9769633
20
2.5835822
11
-9.9678865
21
2.5973228
0
LINE
8
layer0
10
-9.9678865
20
2.5973228
11
-9.9568694
21
2.6365555
0
LINE
8
layer0
10
-9.9568694
20
2.6365555
11
-9.9068041
21
2.8187288
0
LINE
8
layer0
10
-9.9068041
20
2.8187288
11
-9.8534686
21
2.9999717
0
LINE
8
layer0
10
-9.8534686
20
2.9999717
11
-9.8421822
21
3.0391278
0
LINE
8
layer0
10
-9.8421822
20
3.0391278
11
-9.842666
21
3.0555885
0
LINE
8
layer0
10
-9.842666
20
3.0555885
11
-9.8481894
21
3.0732649
0
LINE
8
layer0
10
-9.8481894
20
3.0732649
11
-9.8588005
21
3.0919521
0
LINE
8
layer0
10
-9.8588005
20
3.0919521
11
-9.8745278
21
3.11144
0
LINE
8
layer0
10
-9.8745278
20
3.11144
11
-9.8954163
21
3.1315335
0
LINE
8
layer0
10
-9.8954163
20
3.1315335
11
-9.9214976
21
3.1520127
0
LINE
8
layer0
10
-9.9214976
20
3.1520127
11
-9.9528
21
3.1726676
0
LINE
8
layer0
10
-9.9528
20
3.1726676
11
-10.1010399
21
3.2527629
0
LINE
8
layer0
10
-10.1010399
20
3.2527629
11
-10.1863876
21
3.3039952
0
LINE
8
layer0
10
-10.1863876
20
3.3039952
11
-10.2864862
21
3.3699253
0
LINE
8
layer0
10
-10.2864862
20
3.3699253
11
-10.3971547
21
3.4496444
0
LINE
8
layer0
10
-10.3971547
20
3.4496444
11
-10.5197672
21
3.5459971
0
LINE
8
layer0
10
-10.5197672
20
3.5459971
11
-10.6508434
21
3.6581699
0
LINE
8
layer0
10
-10.6508434
20
3.6581699
11
-10.791363
21
3.7889681
0
LINE
8
layer0
10
-10.791363
20
3.7889681
11
-10.8640318
21
3.8609736
0
LINE
8
layer0
10
-10.8640318
20
3.8609736
11
-10.9953814
21
3.9989349
0
ARC
8
layer0
10
0.0000038
20
-0.000003
40
11.7
50
157.6329868
51
160.0140585
0
LINE
8
layer0
10
-10.81975
20
4.452292
11
-10.6297375
21
4.465757
0
LINE
8
layer0
10
-10.6297375
20
4.465757
11
-10.5275248
21
4.470013
0
LINE
8
layer0
10
-10.5275248
20
4.470013
11
-10.3355614
21
4.4720066
0
LINE
8
layer0
10
-10.3355614
20
4.4720066
11
-10.1631245
21
4.4665978
0
LINE
8
layer0
10
-10.1631245
20
4.4665978
11
-10.0076004
21
4.4551999
0
LINE
8
layer0
10
-10.0076004
20
4.4551999
11
-9.872109
21
4.4395561
0
LINE
8
layer0
10
-9.872109
20
4.4395561
11
-9.7537184
21
4.420843
0
LINE
8
layer0
10
-9.7537184
20
4.420843
11
-9.6561307
21
4.4012058
0
LINE
8
layer0
10
-9.6561307
20
4.4012058
11
-9.4926203
21
4.3605284
0
LINE
8
layer0
10
-9.4926203
20
4.3605284
11
-9.4555724
21
4.3547042
0
LINE
8
layer0
10
-9.4555724
20
4.3547042
11
-9.4225014
21
4.3522677
0
LINE
8
layer0
10
-9.4225014
20
4.3522677
11
-9.3935277
21
4.3530444
0
LINE
8
layer0
10
-9.3935277
20
4.3530444
11
-9.3687762
21
4.3568508
0
LINE
8
layer0
10
-9.3687762
20
4.3568508
11
-9.348345
21
4.3635122
0
LINE
8
layer0
10
-9.348345
20
4.3635122
11
-9.3323546
21
4.372854
0
LINE
8
layer0
10
-9.3323546
20
4.372854
11
-9.3209075
21
4.3846928
0
LINE
8
layer0
10
-9.3209075
20
4.3846928
11
-9.302869
21
4.4212331
0
LINE
8
layer0
10
-9.302869
20
4.4212331
11
-9.2201819
21
4.5911051
0
LINE
8
layer0
10
-9.2201819
20
4.5911051
11
-9.1344512
21
4.7594616
0
LINE
8
layer0
10
-9.1344512
20
4.7594616
11
-9.1161621
21
4.7958771
0
LINE
8
layer0
10
-9.1161621
20
4.7958771
11
-9.1136129
21
4.8121464
0
LINE
8
layer0
10
-9.1136129
20
4.8121464
11
-9.1157944
21
4.8305368
0
LINE
8
layer0
10
-9.1157944
20
4.8305368
11
-9.122791
21
4.8508556
0
LINE
8
layer0
10
-9.122791
20
4.8508556
11
-9.1346696
21
4.8729016
0
LINE
8
layer0
10
-9.1346696
20
4.8729016
11
-9.1515103
21
4.8964912
0
LINE
8
layer0
10
-9.1515103
20
4.8964912
11
-9.1733844
21
4.9214141
0
LINE
8
layer0
10
-9.1733844
20
4.9214141
11
-9.2003586
21
4.9474691
0
LINE
8
layer0
10
-9.2003586
20
4.9474691
11
-9.3313569
21
5.0534396
0
LINE
8
layer0
10
-9.3313569
20
5.0534396
11
-9.4058375
21
5.1194822
0
LINE
8
layer0
10
-9.4058375
20
5.1194822
11
-9.492117
21
5.2026828
0
LINE
8
layer0
10
-9.492117
20
5.2026828
11
-9.5862529
21
5.3013798
0
LINE
8
layer0
10
-9.5862529
20
5.3013798
11
-9.6890729
21
5.4186219
0
LINE
8
layer0
10
-9.6890729
20
5.4186219
11
-9.7973056
21
5.55297
0
LINE
8
layer0
10
-9.7973056
20
5.55297
11
-9.9113985
21
5.7073615
0
LINE
8
layer0
10
-9.9113985
20
5.7073615
11
-9.969599
21
5.7914938
0
LINE
8
layer0
10
-9.969599
20
5.7914938
11
-10.0733618
21
5.9512415
0
ARC
8
layer0
10
0.0000043
20
-0.0000017
40
11.7
50
147.0447623
51
149.4258341
0
LINE
8
layer0
10
-9.8174166
20
6.3646071
11
-9.6281653
21
6.3429281
0
LINE
8
layer0
10
-9.6281653
20
6.3429281
11
-9.5269109
21
6.3283302
0
LINE
8
layer0
10
-9.5269109
20
6.3283302
11
-9.3378497
21
6.2950166
0
LINE
8
layer0
10
-9.3378497
20
6.2950166
11
-9.1693428
21
6.2580148
0
LINE
8
layer0
10
-9.1693428
20
6.2580148
11
-9.0185612
21
6.2182334
0
LINE
8
layer0
10
-9.0185612
20
6.2182334
11
-8.8882513
21
6.1779595
0
LINE
8
layer0
10
-8.8882513
20
6.1779595
11
-8.7753151
21
6.1378109
0
LINE
8
layer0
10
-8.7753151
20
6.1378109
11
-8.6829973
21
6.1005762
0
LINE
8
layer0
10
-8.6829973
20
6.1005762
11
-8.5297454
21
6.0305465
0
LINE
8
layer0
10
-8.5297454
20
6.0305465
11
-8.4943985
21
6.0180139
0
LINE
8
layer0
10
-8.4943985
20
6.0180139
11
-8.4623383
21
6.0095422
0
LINE
8
layer0
10
-8.4623383
20
6.0095422
11
-8.4337152
21
6.0049817
0
LINE
8
layer0
10
-8.4337152
20
6.0049817
11
-8.4086857
21
6.0041752
0
LINE
8
layer0
10
-8.4086857
20
6.0041752
11
-8.3873784
21
6.006969
0
LINE
8
layer0
10
-8.3873784
20
6.006969
11
-8.3699437
21
6.0132135
0
LINE
8
layer0
10
-8.3699437
20
6.0132135
11
-8.3565162
21
6.0227473
0
LINE
8
layer0
10
-8.3565162
20
6.0227473
11
-8.3320705
21
6.0553509
0
LINE
8
layer0
10
-8.3320705
20
6.0553509
11
-8.2195774
21
6.2071368
0
LINE
8
layer0
10
-8.2195774
20
6.2071368
11
-8.1043711
21
6.3568737
0
LINE
8
layer0
10
-8.1043711
20
6.3568737
11
-8.079702
21
6.3893085
0
LINE
8
layer0
10
-8.079702
20
6.3893085
11
-8.0742068
21
6.4048325
0
LINE
8
layer0
10
-8.0742068
20
6.4048325
11
-8.0729718
21
6.4233105
0
LINE
8
layer0
10
-8.0729718
20
6.4233105
11
-8.0761158
21
6.444569
0
LINE
8
layer0
10
-8.0761158
20
6.444569
11
-8.0837411
21
6.4684223
0
LINE
8
layer0
10
-8.0837411
20
6.4684223
11
-8.0959606
21
6.4947047
0
LINE
8
layer0
10
-8.0959606
20
6.4947047
11
-8.1128826
21
6.5232227
0
LINE
8
layer0
10
-8.1128826
20
6.5232227
11
-8.1346099
21
6.5537905
0
LINE
8
layer0
10
-8.1346099
20
6.5537905
11
-8.2439057
21
6.6820276
0
LINE
8
layer0
10
-8.2439057
20
6.6820276
11
-8.3049828
21
6.7606314
0
LINE
8
layer0
10
-8.3049828
20
6.7606314
11
-8.3745053
21
6.8582691
0
LINE
8
layer0
10
-8.3745053
20
6.8582691
11
-8.4489027
21
6.9725831
0
LINE
8
layer0
10
-8.4489027
20
6.9725831
11
-8.5284289
21
7.106722
0
LINE
8
layer0
10
-8.5284289
20
7.106722
11
-8.6101323
21
7.2586703
0
LINE
8
layer0
10
-8.6101323
20
7.2586703
11
-8.6939132
21
7.4313975
0
LINE
8
layer0
10
-8.6939132
20
7.4313975
11
-8.7356634
21
7.5247916
0
LINE
8
layer0
10
-8.7356634
20
7.5247916
11
-8.8083059
21
7.7008857
0
ARC
8
layer0
10
0.000004
20
-0.0000024
40
11.7
50
136.4565272
51
138.8375991
0
LINE
8
layer0
10
-8.480763
20
8.0601831
11
-8.2987175
21
8.0040985
0
LINE
8
layer0
10
-8.2987175
20
8.0040985
11
-8.2018695
21
7.9711436
0
LINE
8
layer0
10
-8.2018695
20
7.9711436
11
-8.0221488
21
7.9036574
0
LINE
8
layer0
10
-8.0221488
20
7.9036574
11
-7.8633102
21
7.8363225
0
LINE
8
layer0
10
-7.8633102
20
7.8363225
11
-7.7224057
21
7.7695124
0
LINE
8
layer0
10
-7.7224057
20
7.7695124
11
-7.6017148
21
7.7059799
0
LINE
8
layer0
10
-7.6017148
20
7.7059799
11
-7.4980789
21
7.6457629
0
LINE
8
layer0
10
-7.4980789
20
7.6457629
11
-7.4141749
21
7.5921989
0
LINE
8
layer0
10
-7.4141749
20
7.5921989
11
-7.2764003
21
7.4952016
0
LINE
8
layer0
10
-7.2764003
20
7.4952016
11
-7.2439581
21
7.4763874
0
LINE
8
layer0
10
-7.2439581
20
7.4763874
11
-7.2140004
21
7.4621689
0
LINE
8
layer0
10
-7.2140004
20
7.4621689
11
-7.1867027
21
7.4524266
0
LINE
8
layer0
10
-7.1867027
20
7.4524266
11
-7.1622476
21
7.4470347
0
LINE
8
layer0
10
-7.1622476
20
7.4470347
11
-7.1407897
21
7.4458656
0
LINE
8
layer0
10
-7.1407897
20
7.4458656
11
-7.1225044
21
7.4488002
0
LINE
8
layer0
10
-7.1225044
20
7.4488002
11
-7.1075537
21
7.4557044
0
LINE
8
layer0
10
-7.1075537
20
7.4557044
11
-7.0775334
21
7.483261
0
LINE
8
layer0
10
-7.0775334
20
7.483261
11
-6.9390651
21
7.6117918
0
LINE
8
layer0
10
-6.9390651
20
7.6117918
11
-6.7983063
21
7.7378101
0
LINE
8
layer0
10
-6.7983063
20
7.7378101
11
-6.7680974
21
7.7651597
0
LINE
8
layer0
10
-6.7680974
20
7.7651597
11
-6.7598432
21
7.7794096
0
LINE
8
layer0
10
-6.7598432
20
7.7794096
11
-6.7552339
21
7.7973461
0
LINE
8
layer0
10
-6.7552339
20
7.7973461
11
-6.7544181
21
7.8188203
0
LINE
8
layer0
10
-6.7544181
20
7.8188203
11
-6.7575306
21
7.8436686
0
LINE
8
layer0
10
-6.7575306
20
7.8436686
11
-6.7647126
21
7.8717489
0
LINE
8
layer0
10
-6.7647126
20
7.8717489
11
-6.7761063
21
7.9028907
0
LINE
8
layer0
10
-6.7761063
20
7.9028907
11
-6.7918469
21
7.9369304
0
LINE
8
layer0
10
-6.7918469
20
7.9369304
11
-6.8757182
21
8.083067
0
LINE
8
layer0
10
-6.8757182
20
8.083067
11
-6.921312
21
8.1715554
0
LINE
8
layer0
10
-6.921312
20
8.1715554
11
-6.9717097
21
8.2803054
0
LINE
8
layer0
10
-6.9717097
20
8.2803054
11
-7.0238353
21
8.4063434
0
LINE
8
layer0
10
-7.0238353
20
8.4063434
11
-7.0773594
21
8.5528113
0
LINE
8
layer0
10
-7.0773594
20
8.5528113
11
-7.1297512
21
8.7171853
0
LINE
8
layer0
10
-7.1297512
20
8.7171853
11
-7.1803671
21
8.9023662
0
LINE
8
layer0
10
-7.1803671
20
8.9023662
11
-7.2042453
21
9.0018417
0
LINE
8
layer0
10
-7.2042453
20
9.0018417
11
-7.2432937
21
9.1882854
0
ARC
8
layer0
10
0.0000031
20
-0.0000034
40
11.7
50
125.8682897
51
128.2493615
0
LINE
8
layer0
10
-6.8553071
20
9.4812793
11
-6.6866669
21
9.3926988
0
LINE
8
layer0
10
-6.6866669
20
9.3926988
11
-6.5975233
21
9.3425093
0
LINE
8
layer0
10
-6.5975233
20
9.3425093
11
-6.4332633
21
9.2431486
0
LINE
8
layer0
10
-6.4332633
20
9.2431486
11
-6.2895019
21
9.1477737
0
LINE
8
layer0
10
-6.2895019
20
9.1477737
11
-6.1632729
21
9.05621
0
LINE
8
layer0
10
-6.1632729
20
9.05621
11
-6.0563111
21
8.9715823
0
LINE
8
layer0
10
-6.0563111
20
8.9715823
11
-5.9655046
21
8.8933476
0
LINE
8
layer0
10
-5.9655046
20
8.8933476
11
-5.8928716
21
8.8252784
0
LINE
8
layer0
10
-5.8928716
20
8.8252784
11
-5.775266
21
8.7046166
0
LINE
8
layer0
10
-5.775266
20
8.7046166
11
-5.7468334
21
8.6801615
0
LINE
8
layer0
10
-5.7468334
20
8.6801615
11
-5.7199984
21
8.6606804
0
LINE
8
layer0
10
-5.7199984
20
8.6606804
11
-5.6949556
21
8.646088
0
LINE
8
layer0
10
-5.6949556
20
8.646088
11
-5.6719077
21
8.6362943
0
LINE
8
layer0
10
-5.6719077
20
8.6362943
11
-5.6510299
21
8.6312023
0
LINE
8
layer0
10
-5.6510299
20
8.6312023
11
-5.6325168
21
8.630727
0
LINE
8
layer0
10
-5.6325168
20
8.630727
11
-5.616552
21
8.6347664
0
LINE
8
layer0
10
-5.616552
20
8.6347664
11
-5.5819794
21
8.6563376
0
LINE
8
layer0
10
-5.5819794
20
8.6563376
11
-5.4222513
21
8.7572365
0
LINE
8
layer0
10
-5.4222513
20
8.7572365
11
-5.2607333
21
8.8552447
0
LINE
8
layer0
10
-5.2607333
20
8.8552447
11
-5.2260133
21
8.8765778
0
LINE
8
layer0
10
-5.2260133
20
8.8765778
11
-5.2152812
21
8.8890683
0
LINE
8
layer0
10
-5.2152812
20
8.8890683
11
-5.2074547
21
8.9058525
0
LINE
8
layer0
10
-5.2074547
20
8.9058525
11
-5.2027068
21
8.9268111
0
LINE
8
layer0
10
-5.2027068
20
8.9268111
11
-5.2012005
21
8.9518083
0
LINE
8
layer0
10
-5.2012005
20
8.9518083
11
-5.2031004
21
8.9807301
0
LINE
8
layer0
10
-5.2031004
20
8.9807301
11
-5.2085779
21
9.0134352
0
LINE
8
layer0
10
-5.2085779
20
9.0134352
11
-5.2177957
21
9.0497877
0
LINE
8
layer0
10
-5.2177957
20
9.0497877
11
-5.2733863
21
9.2088474
0
LINE
8
layer0
10
-5.2733863
20
9.2088474
11
-5.3019441
21
9.3042068
0
LINE
8
layer0
10
-5.3019441
20
9.3042068
11
-5.331501
21
9.4203658
0
LINE
8
layer0
10
-5.331501
20
9.4203658
11
-5.3595796
21
9.5538358
0
LINE
8
layer0
10
-5.3595796
20
9.5538358
11
-5.385279
21
9.7076448
0
LINE
8
layer0
10
-5.385279
20
9.7076448
11
-5.4065751
21
9.878847
0
LINE
8
layer0
10
-5.4065751
20
9.878847
11
-5.4223022
21
10.0701754
0
LINE
8
layer0
10
-5.4223022
20
10.0701754
11
-5.4274953
21
10.1723449
0
LINE
8
layer0
10
-5.4274953
20
10.1723449
11
-5.4316199
21
10.3627891
0
ARC
8
layer0
10
0.0000027
20
-0.0000038
40
11.7
50
115.2800559
51
117.6611279
0
LINE
8
layer0
10
-4.996402
20
10.5795019
11
-4.8469098
21
10.4614421
0
LINE
8
layer0
10
-4.8469098
20
10.4614421
11
-4.7685064
21
10.3957271
0
LINE
8
layer0
10
-4.7685064
20
10.3957271
11
-4.6253007
21
10.2678754
0
LINE
8
layer0
10
-4.6253007
20
10.2678754
11
-4.5015122
21
10.1477084
0
LINE
8
layer0
10
-4.5015122
20
10.1477084
11
-4.3942572
21
10.0345092
0
LINE
8
layer0
10
-4.3942572
20
10.0345092
11
-4.304667
21
9.9316683
0
LINE
8
layer0
10
-4.304667
20
9.9316683
11
-4.2297822
21
9.83808
0
LINE
8
layer0
10
-4.2297822
20
9.83808
11
-4.1708936
21
9.7578235
0
LINE
8
layer0
10
-4.1708936
20
9.7578235
11
-4.0774621
21
9.6176063
0
LINE
8
layer0
10
-4.0774621
20
9.6176063
11
-4.0540071
21
9.5883432
0
LINE
8
layer0
10
-4.0540071
20
9.5883432
11
-4.0312088
21
9.5642628
0
LINE
8
layer0
10
-4.0312088
20
9.5642628
11
-4.0092736
21
9.5453173
0
LINE
8
layer0
10
-4.0092736
20
9.5453173
11
-3.9884177
21
9.5314553
0
LINE
8
layer0
10
-3.9884177
20
9.5314553
11
-3.9688312
21
9.5226137
0
LINE
8
layer0
10
-3.9688312
20
9.5226137
11
-3.9507206
21
9.5187447
0
LINE
8
layer0
10
-3.9507206
20
9.5187447
11
-3.9342854
21
9.5197818
0
LINE
8
layer0
10
-3.9342854
20
9.5197818
11
-3.8963377
21
9.534633
0
LINE
8
layer0
10
-3.8963377
20
9.534633
11
-3.7207892
21
9.604464
0
LINE
8
layer0
10
-3.7207892
20
9.604464
11
-3.5440124
21
9.6711245
0
LINE
8
layer0
10
-3.5440124
20
9.6711245
11
-3.5059636
21
9.6857146
0
LINE
8
layer0
10
-3.5059636
20
9.6857146
11
-3.4931191
21
9.6960205
0
LINE
8
layer0
10
-3.4931191
20
9.6960205
11
-3.4823417
21
9.7110807
0
LINE
8
layer0
10
-3.4823417
20
9.7110807
11
-3.4738236
21
9.7308101
0
LINE
8
layer0
10
-3.4738236
20
9.7308101
11
-3.4677497
21
9.7551048
0
LINE
8
layer0
10
-3.4677497
20
9.7551048
11
-3.4643029
21
9.7838833
0
LINE
8
layer0
10
-3.4643029
20
9.7838833
11
-3.4636776
21
9.817038
0
LINE
8
layer0
10
-3.4636776
20
9.817038
11
-3.4660587
21
9.8544653
0
LINE
8
layer0
10
-3.4660587
20
9.8544653
11
-3.4914757
21
10.0210314
0
LINE
8
layer0
10
-3.4914757
20
10.0210314
11
-3.5020249
21
10.1200147
0
LINE
8
layer0
10
-3.5020249
20
10.1200147
11
-3.5097344
21
10.2396269
0
LINE
8
layer0
10
-3.5097344
20
10.2396269
11
-3.5128099
21
10.3759838
0
LINE
8
layer0
10
-3.5128099
20
10.3759838
11
-3.5098093
21
10.5318961
0
LINE
8
layer0
10
-3.5098093
20
10.5318961
11
-3.4992845
21
10.7040964
0
LINE
8
layer0
10
-3.4992845
20
10.7040964
11
-3.4795873
21
10.895057
0
LINE
8
layer0
10
-3.4795873
20
10.895057
11
-3.4659184
21
10.996441
0
LINE
8
layer0
10
-3.4659184
20
10.996441
11
-3.4349787
21
11.1844005
0
ARC
8
layer0
10
7e-7
20
-0.0000045
40
11.7
50
104.6918144
51
107.072886
0
LINE
8
layer0
10
-2.9673504
20
11.3174522
11
-2.842097
21
11.1739335
0
LINE
8
layer0
10
-2.842097
20
11.1739335
11
-2.7771037
21
11.0949308
0
LINE
8
layer0
10
-2.7771037
20
11.0949308
11
-2.659829
21
10.9429421
0
LINE
8
layer0
10
-2.659829
20
10.9429421
11
-2.5602288
21
10.802075
0
LINE
8
layer0
10
-2.5602288
20
10.802075
11
-2.4756004
21
10.6710953
0
LINE
8
layer0
10
-2.4756004
20
10.6710953
11
-2.4064326
21
10.5535433
0
LINE
8
layer0
10
-2.4064326
20
10.5535433
11
-2.3500196
21
10.4477885
0
LINE
8
layer0
10
-2.3500196
20
10.4477885
11
-2.3068808
21
10.3580777
0
LINE
8
layer0
10
-2.3068808
20
10.3580777
11
-2.240805
21
10.20308
0
LINE
8
layer0
10
-2.240805
20
10.20308
11
-2.2231265
21
10.1700052
0
LINE
8
layer0
10
-2.2231265
20
10.1700052
11
-2.2051411
21
10.1421457
0
LINE
8
layer0
10
-2.2051411
20
10.1421457
11
-2.1870607
21
10.1194922
0
LINE
8
layer0
10
-2.1870607
20
10.1194922
11
-2.169107
21
10.102034
0
LINE
8
layer0
10
-2.169107
20
10.102034
11
-2.1514786
21
10.0897439
0
LINE
8
layer0
10
-2.1514786
20
10.0897439
11
-2.1343873
21
10.082613
0
LINE
8
layer0
10
-2.1343873
20
10.082613
11
-2.1180414
21
10.0806125
0
LINE
8
layer0
10
-2.1180414
20
10.0806125
11
-2.0780109
21
10.0882379
0
LINE
8
layer0
10
-2.0780109
20
10.0882379
11
-1.89262
21
10.1246229
0
LINE
8
layer0
10
-1.89262
20
10.1246229
11
-1.7066044
21
10.1576658
0
LINE
8
layer0
10
-1.7066044
20
10.1576658
11
-1.6665225
21
10.165016
0
LINE
8
layer0
10
-1.6665225
20
10.165016
11
-1.6520031
21
10.1727863
0
LINE
8
layer0
10
-1.6520031
20
10.1727863
11
-1.6386419
21
10.1856097
0
LINE
8
layer0
10
-1.6386419
20
10.1856097
11
-1.6266435
21
10.203438
0
LINE
8
layer0
10
-1.6266435
20
10.203438
11
-1.6162089
21
10.2262029
0
LINE
8
layer0
10
-1.6162089
20
10.2262029
11
-1.6075328
21
10.253858
0
LINE
8
layer0
10
-1.6075328
20
10.253858
11
-1.6008259
21
10.2863334
0
LINE
8
layer0
10
-1.6008259
20
10.2863334
11
-1.5962892
21
10.3235609
0
LINE
8
layer0
10
-1.5962892
20
10.3235609
11
-1.590667
21
10.4919613
0
LINE
8
layer0
10
-1.590667
20
10.4919613
11
-1.5828485
21
10.5911976
0
LINE
8
layer0
10
-1.5828485
20
10.5911976
11
-1.568448
21
10.7101898
0
LINE
8
layer0
10
-1.568448
20
10.7101898
11
-1.5464156
21
10.84479
0
LINE
8
layer0
10
-1.5464156
20
10.84479
11
-1.5148173
21
10.9974963
0
LINE
8
layer0
10
-1.5148173
20
10.9974963
11
-1.47283
21
11.1648307
0
LINE
8
layer0
10
-1.47283
20
11.1648307
11
-1.4183793
21
11.3489204
0
LINE
8
layer0
10
-1.4183793
20
11.3489204
11
-1.3863138
21
11.4460665
0
LINE
8
layer0
10
-1.3863138
20
11.4460665
11
-1.3213635
21
11.6251405
0
ARC
8
layer0
10
5e-7
20
-0.0000045
40
11.7
50
94.1035821
51
96.4846541
0
LINE
8
layer0
10
-0.8372492
20
11.6700003
11
-0.7405
21
11.50591
0
LINE
8
layer0
10
-0.7405
20
11.50591
11
-0.69113
21
11.41631
0
LINE
8
layer0
10
-0.69113
20
11.41631
11
-0.60378
21
11.24536
0
LINE
8
layer0
10
-0.60378
20
11.24536
11
-0.53176
21
11.08859
0
LINE
8
layer0
10
-0.53176
20
11.08859
11
-0.47264
21
10.94429
0
LINE
8
layer0
10
-0.47264
20
10.94429
11
-0.42625
21
10.81603
0
LINE
8
layer0
10
-0.42625
20
10.81603
11
-0.39023
21
10.70171
0
LINE
8
layer0
10
-0.39023
20
10.70171
11
-0.36431
21
10.6056
0
LINE
8
layer0
10
-0.36431
20
10.6056
11
-0.32784
21
10.4411
0
LINE
8
layer0
10
-0.32784
20
10.4411
11
-0.31654
21
10.40534
0
LINE
8
layer0
10
-0.31654
20
10.40534
11
-0.30398
21
10.37465
0
LINE
8
layer0
10
-0.30398
20
10.37465
11
-0.29037
21
10.34906
0
LINE
8
layer0
10
-0.29037
20
10.34906
11
-0.27593
21
10.3286
0
LINE
8
layer0
10
-0.27593
20
10.3286
11
-0.26086
21
10.31328
0
LINE
8
layer0
10
-0.26086
20
10.31328
11
-0.24537
21
10.30313
0
LINE
8
layer0
10
-0.24537
20
10.30313
11
-0.22967
21
10.29816
0
LINE
8
layer0
10
-0.22967
20
10.29816
11
-0.18892
21
10.2983
0
LINE
8
layer0
10
-0.18892
20
10.2983
11
0
21
10.3
0
LINE
8
layer0
10
0
20
10.3
11
0.18892
21
10.2983
0
LINE
8
layer0
10
0.18892
20
10.2983
11
0.22967
21
10.29816
0
LINE
8
layer0
10
0.22967
20
10.29816
11
0.24537
21
10.30313
0
LINE
8
layer0
10
0.24537
20
10.30313
11
0.26086
21
10.31328
0
LINE
8
layer0
10
0.26086
20
10.31328
11
0.27593
21
10.3286
0
LINE
8
layer0
10
0.27593
20
10.3286
11
0.29037
21
10.34906
0
LINE
8
layer0
10
0.29037
20
10.34906
11
0.30398
21
10.37465
0
LINE
8
layer0
10
0.30398
20
10.37465
11
0.31654
21
10.40534
0
LINE
8
layer0
10
0.31654
20
10.40534
11
0.32784
21
10.4411
0
LINE
8
layer0
10
0.32784
20
10.4411
11
0.36431
21
10.6056
0
LINE
8
layer0
10
0.36431
20
10.6056
11
0.39023
21
10.70171
0
LINE
8
layer0
10
0.39023
20
10.70171
11
0.42625
21
10.81603
0
LINE
8
layer0
10
0.42625
20
10.81603
11
0.47264
21
10.94429
0
LINE
8
layer0
10
0.47264
20
10.94429
11
0.53176
21
11.08859
0
LINE
8
layer0
10
0.53176
20
11.08859
11
0.60378
21
11.24536
0
LINE
8
layer0
10
0.60378
20
11.24536
11
0.69113
21
11.41631
0
LINE
8
layer0
10
0.69113
20
11.41631
11
0.7405
21
11.50591
0
LINE
8
layer0
10
0.7405
20
11.50591
11
0.8372492
21
11.6700003
0
ARC
8
layer0
10
-5e-7
20
-0.0000045
40
11.7
50
83.5153459
51
85.8964179
0
LINE
8
layer0
10
1.3213635
20
11.6251405
11
1.3863138
21
11.4460665
0
LINE
8
layer0
10
1.3863138
20
11.4460665
11
1.4183793
21
11.3489204
0
LINE
8
layer0
10
1.4183793
20
11.3489204
11
1.47283
21
11.1648307
0
LINE
8
layer0
10
1.47283
20
11.1648307
11
1.5148173
21
10.9974963
0
LINE
8
layer0
10
1.5148173
20
10.9974963
11
1.5464156
21
10.84479
0
LINE
8
layer0
10
1.5464156
20
10.84479
11
1.568448
21
10.7101898
0
LINE
8
layer0
10
1.568448
20
10.7101898
11
1.5828485
21
10.5911976
0
LINE
8
layer0
10
1.5828485
20
10.5911976
11
1.590667
21
10.4919613
0
LINE
8
layer0
10
1.590667
20
10.4919613
11
1.5962892
21
10.3235609
0
LINE
8
layer0
10
1.5962892
20
10.3235609
11
1.6008259
21
10.2863334
0
LINE
8
layer0
10
1.6008259
20
10.2863334
11
1.6075328
21
10.253858
0
LINE
8
layer0
10
1.6075328
20
10.253858
11
1.6162089
21
10.2262029
0
LINE
8
layer0
10
1.6162089
20
10.2262029
11
1.6266435
21
10.203438
0
LINE
8
layer0
10
1.6266435
20
10.203438
11
1.6386419
21
10.1856097
0
LINE
8
layer0
10
1.6386419
20
10.1856097
11
1.6520031
21
10.1727863
0
LINE
8
layer0
10
1.6520031
20
10.1727863
11
1.6665225
21
10.165016
0
LINE
8
layer0
10
1.6665225
20
10.165016
11
1.7066044
21
10.1576658
0
LINE
8
layer0
10
1.7066044
20
10.1576658
11
1.89262
21
10.1246229
0
LINE
8
layer0
10
1.89262
20
10.1246229
11
2.0780109
21
10.0882379
0
LINE
8
layer0
10
2.0780109
20
10.0882379
11
2.1180414
21
10.0806125
0
LINE
8
layer0
10
2.1180414
20
10.0806125
11
2.1343873
21
10.082613
0
LINE
8
layer0
10
2.1343873
20
10.082613
11
2.1514786
21
10.0897439
0
LINE
8
layer0
10
2.1514786
20
10.0897439
11
2.169107
21
10.102034
0
LINE
8
layer0
10
2.169107
20
10.102034
11
2.1870607
21
10.1194922
0
LINE
8
layer0
10
2.1870607
20
10.1194922
11
2.2051411
21
10.1421457
0
LINE
8
layer0
10
2.2051411
20
10.1421457
11
2.2231265
21
10.1700052
0
LINE
8
layer0
10
2.2231265
20
10.1700052
11
2.240805
21
10.20308
0
LINE
8
layer0
10
2.240805
20
10.20308
11
2.3068808
21
10.3580777
0
LINE
8
layer0
10
2.3068808
20
10.3580777
11
2.3500196
21
10.4477885
0
LINE
8
layer0
10
2.3500196
20
10.4477885
11
2.4064326
21
10.5535433
0
LINE
8
layer0
10
2.4064326
20
10.5535433
11
2.4756004
21
10.6710953
0
LINE
8
layer0
10
2.4756004
20
10.6710953
11
2.5602288
21
10.802075
0
LINE
8
layer0
10
2.5602288
20
10.802075
11
2.659829
21
10.9429421
0
LINE
8
layer0
10
2.659829
20
10.9429421
11
2.7771037
21
11.0949308
0
LINE
8
layer0
10
2.7771037
20
11.0949308
11
2.842097
21
11.1739335
0
LINE
8
layer0
10
2.842097
20
11.1739335
11
2.9673504
21
11.3174522
0
ARC
8
layer0
10
-7e-7
20
-0.0000045
40
11.7
50
72.927114
51
75.3081856
0
LINE
8
layer0
10
3.4349787
20
11.1844005
11
3.4659184
21
10.996441
0
LINE
8
layer0
10
3.4659184
20
10.996441
11
3.4795873
21
10.895057
0
LINE
8
layer0
10
3.4795873
20
10.895057
11
3.4992845
21
10.7040964
0
LINE
8
layer0
10
3.4992845
20
10.7040964
11
3.5098093
21
10.5318961
0
LINE
8
layer0
10
3.5098093
20
10.5318961
11
3.5128099
21
10.3759838
0
LINE
8
layer0
10
3.5128099
20
10.3759838
11
3.5097344
21
10.2396269
0
LINE
8
layer0
10
3.5097344
20
10.2396269
11
3.5020249
21
10.1200147
0
LINE
8
layer0
10
3.5020249
20
10.1200147
11
3.4914757
21
10.0210314
0
LINE
8
layer0
10
3.4914757
20
10.0210314
11
3.4660587
21
9.8544653
0
LINE
8
layer0
10
3.4660587
20
9.8544653
11
3.4636776
21
9.817038
0
LINE
8
layer0
10
3.4636776
20
9.817038
11
3.4643029
21
9.7838833
0
LINE
8
layer0
10
3.4643029
20
9.7838833
11
3.4677497
21
9.7551048
0
LINE
8
layer0
10
3.4677497
20
9.7551048
11
3.4738236
21
9.7308101
0
LINE
8
layer0
10
3.4738236
20
9.7308101
11
3.4823417
21
9.7110807
0
LINE
8
layer0
10
3.4823417
20
9.7110807
11
3.4931191
21
9.6960205
0
LINE
8
layer0
10
3.4931191
20
9.6960205
11
3.5059636
21
9.6857146
0
LINE
8
layer0
10
3.5059636
20
9.6857146
11
3.5440124
21
9.6711245
0
LINE
8
layer0
10
3.5440124
20
9.6711245
11
3.7207892
21
9.604464
0
LINE
8
layer0
10
3.7207892
20
9.604464
11
3.8963377
21
9.534633
0
LINE
8
layer0
10
3.8963377
20
9.534633
11
3.9342854
21
9.5197818
0
LINE
8
layer0
10
3.9342854
20
9.5197818
11
3.9507206
21
9.5187447
0
LINE
8
layer0
10
3.9507206
20
9.5187447
11
3.9688312
21
9.5226137
0
LINE
8
layer0
10
3.9688312
20
9.5226137
11
3.9884177
21
9.5314553
0
LINE
8
layer0
10
3.9884177
20
9.5314553
11
4.0092736
21
9.5453173
0
LINE
8
layer0
10
4.0092736
20
9.5453173
11
4.0312088
21
9.5642628
0
LINE
8
layer0
10
4.0312088
20
9.5642628
11
4.0540071
21
9.5883432
0
LINE
8
layer0
10
4.0540071
20
9.5883432
11
4.0774621
21
9.6176063
0
LINE
8
layer0
10
4.0774621
20
9.6176063
11
4.1708936
21
9.7578235
0
LINE
8
layer0
10
4.1708936
20
9.7578235
11
4.2297822
21
9.83808
0
LINE
8
layer0
10
4.2297822
20
9.83808
11
4.304667
21
9.9316683
0
LINE
8
layer0
10
4.304667
20
9.9316683
11
4.3942572
21
10.0345092
0
LINE
8
layer0
10
4.3942572
20
10.0345092
11
4.5015122
21
10.1477084
0
LINE
8
layer0
10
4.5015122
20
10.1477084
11
4.6253007
21
10.2678754
0
LINE
8
layer0
10
4.6253007
20
10.2678754
11
4.7685064
21
10.3957271
0
LINE
8
layer0
10
4.7685064
20
10.3957271
11
4.8469098
21
10.4614421
0
LINE
8
layer0
10
4.8469098
20
10.4614421
11
4.996402
21
10.5795019
0
ARC
8
layer0
10
-0.0000027
20
-0.0000038
40
11.7
50
62.3388721
51
64.7199441
0
LINE
8
layer0
10
5.4316199
20
10.3627891
11
5.4274953
21
10.1723449
0
LINE
8
layer0
10
5.4274953
20
10.1723449
11
5.4223022
21
10.0701754
0
LINE
8
layer0
10
5.4223022
20
10.0701754
11
5.4065751
21
9.878847
0
LINE
8
layer0
10
5.4065751
20
9.878847
11
5.385279
21
9.7076448
0
LINE
8
layer0
10
5.385279
20
9.7076448
11
5.3595796
21
9.5538358
0
LINE
8
layer0
10
5.3595796
20
9.5538358
11
5.331501
21
9.4203658
0
LINE
8
layer0
10
5.331501
20
9.4203658
11
5.3019441
21
9.3042068
0
LINE
8
layer0
10
5.3019441
20
9.3042068
11
5.2733863
21
9.2088474
0
LINE
8
layer0
10
5.2733863
20
9.2088474
11
5.2177957
21
9.0497877
0
LINE
8
layer0
10
5.2177957
20
9.0497877
11
5.2085779
21
9.0134352
0
LINE
8
layer0
10
5.2085779
20
9.0134352
11
5.2031004
21
8.9807301
0
LINE
8
layer0
10
5.2031004
20
8.9807301
11
5.2012005
21
8.9518083
0
LINE
8
layer0
10
5.2012005
20
8.9518083
11
5.2027068
21
8.9268111
0
LINE
8
layer0
10
5.2027068
20
8.9268111
11
5.2074547
21
8.9058525
0
LINE
8
layer0
10
5.2074547
20
8.9058525
11
5.2152812
21
8.8890683
0
LINE
8
layer0
10
5.2152812
20
8.8890683
11
5.2260133
21
8.8765778
0
LINE
8
layer0
10
5.2260133
20
8.8765778
11
5.2607333
21
8.8552447
0
LINE
8
layer0
10
5.2607333
20
8.8552447
11
5.4222513
21
8.7572365
0
LINE
8
layer0
10
5.4222513
20
8.7572365
11
5.5819794
21
8.6563376
0
LINE
8
layer0
10
5.5819794
20
8.6563376
11
5.616552
21
8.6347664
0
LINE
8
layer0
10
5.616552
20
8.6347664
11
5.6325168
21
8.630727
0
LINE
8
layer0
10
5.6325168
20
8.630727
11
5.6510299
21
8.6312023
0
LINE
8
layer0
10
5.6510299
20
8.6312023
11
5.6719077
21
8.6362943
0
LINE
8
layer0
10
5.6719077
20
8.6362943
11
5.6949556
21
8.646088
0
LINE
8
layer0
10
5.6949556
20
8.646088
11
5.7199984
21
8.6606804
0
LINE
8
layer0
10
5.7199984
20
8.6606804
11
5.7468334
21
8.6801615
0
LINE
8
layer0
10
5.7468334
20
8.6801615
11
5.775266
21
8.7046166
0
LINE
8
layer0
10
5.775266
20
8.7046166
11
5.8928716
21
8.8252784
0
LINE
8
layer0
10
5.8928716
20
8.8252784
11
5.9655046
21
8.8933476
0
LINE
8
layer0
10
5.9655046
20
8.8933476
11
6.0563111
21
8.9715823
0
LINE
8
layer0
10
6.0563111
20
8.9715823
11
6.1632729
21
9.05621
0
LINE
8
layer0
10
6.1632729
20
9.05621
11
6.2895019
21
9.1477737
0
LINE
8
layer0
10
6.2895019
20
9.1477737
11
6.4332633
21
9.2431486
0
LINE
8
layer0
10
6.4332633
20
9.2431486
11
6.5975233
21
9.3425093
0
LINE
8
layer0
10
6.5975233
20
9.3425093
11
6.6866669
21
9.3926988
0
LINE
8
layer0
10
6.6866669
20
9.3926988
11
6.8553071
21
9.4812793
0
ARC
8
layer0
10
-0.0000031
20
-0.0000034
40
11.7
50
51.7506385
51
54.1317103
0
LINE
8
layer0
10
7.2432937
20
9.1882854
11
7.2042453
21
9.0018417
0
LINE
8
layer0
10
7.2042453
20
9.0018417
11
7.1803671
21
8.9023662
0
LINE
8
layer0
10
7.1803671
20
8.9023662
11
7.1297512
21
8.7171853
0
LINE
8
layer0
10
7.1297512
20
8.7171853
11
7.0773594
21
8.5528113
0
LINE
8
layer0
10
7.0773594
20
8.5528113
11
7.0238353
21
8.4063434
0
LINE
8
layer0
10
7.0238353
20
8.4063434
11
6.9717097
21
8.2803054
0
LINE
8
layer0
10
6.9717097
20
8.2803054
11
6.921312
21
8.1715554
0
LINE
8
layer0
10
6.921312
20
8.1715554
11
6.8757182
21
8.083067
0
LINE
8
layer0
10
6.8757182
20
8.083067
11
6.7918469
21
7.9369304
0
LINE
8
layer0
10
6.7918469
20
7.9369304
11
6.7761063
21
7.9028907
0
LINE
8
layer0
10
6.7761063
20
7.9028907
11
6.7647126
21
7.8717489
0
LINE
8
layer0
10
6.7647126
20
7.8717489
11
6.7575306
21
7.8436686
0
LINE
8
layer0
10
6.7575306
20
7.8436686
11
6.7544181
21
7.8188203
0
LINE
8
layer0
10
6.7544181
20
7.8188203
11
6.7552339
21
7.7973461
0
LINE
8
layer0
10
6.7552339
20
7.7973461
11
6.7598432
21
7.7794096
0
LINE
8
layer0
10
6.7598432
20
7.7794096
11
6.7680974
21
7.7651597
0
LINE
8
layer0
10
6.7680974
20
7.7651597
11
6.7983063
21
7.7378101
0
LINE
8
layer0
10
6.7983063
20
7.7378101
11
6.9390651
21
7.6117918
0
LINE
8
layer0
10
6.9390651
20
7.6117918
11
7.0775334
21
7.483261
0
LINE
8
layer0
10
7.0775334
20
7.483261
11
7.1075537
21
7.4557044
0
LINE
8
layer0
10
7.1075537
20
7.4557044
11
7.1225044
21
7.4488002
0
LINE
8
layer0
10
7.1225044
20
7.4488002
11
7.1407897
21
7.4458656
0
LINE
8
layer0
10
7.1407897
20
7.4458656
11
7.1622476
21
7.4470347
0
LINE
8
layer0
10
7.1622476
20
7.4470347
11
7.1867027
21
7.4524266
0
LINE
8
layer0
10
7.1867027
20
7.4524266
11
7.2140004
21
7.4621689
0
LINE
8
layer0
10
7.2140004
20
7.4621689
11
7.2439581
21
7.4763874
0
LINE
8
layer0
10
7.2439581
20
7.4763874
11
7.2764003
21
7.4952016
0
LINE
8
layer0
10
7.2764003
20
7.4952016
11
7.4141749
21
7.5921989
0
LINE
8
layer0
10
7.4141749
20
7.5921989
11
7.4980789
21
7.6457629
0
LINE
8
layer0
10
7.4980789
20
7.6457629
11
7.6017148
21
7.7059799
0
LINE
8
layer0
10
7.6017148
20
7.7059799
11
7.7224057
21
7.7695124
0
LINE
8
layer0
10
7.7224057
20
7.7695124
11
7.8633102
21
7.8363225
0
LINE
8
layer0
10
7.8633102
20
7.8363225
11
8.0221488
21
7.9036574
0
LINE
8
layer0
10
8.0221488
20
7.9036574
11
8.2018695
21
7.9711436
0
LINE
8
layer0
10
8.2018695
20
7.9711436
11
8.2987175
21
8.0040985
0
LINE
8
layer0
10
8.2987175
20
8.0040985
11
8.480763
21
8.0601831
0
ARC
8
layer0
10
-0.000004
20
-0.0000025
40
11.7
50
41.1624009
51
43.5434728
0
LINE
8
layer0
10
8.8083059
20
7.7008857
11
8.7356634
21
7.5247916
0
LINE
8
layer0
10
8.7356634
20
7.5247916
11
8.6939132
21
7.4313975
0
LINE
8
layer0
10
8.6939132
20
7.4313975
11
8.6101323
21
7.2586703
0
LINE
8
layer0
10
8.6101323
20
7.2586703
11
8.5284289
21
7.106722
0
LINE
8
layer0
10
8.5284289
20
7.106722
11
8.4489027
21
6.9725831
0
LINE
8
layer0
10
8.4489027
20
6.9725831
11
8.3745053
21
6.8582691
0
LINE
8
layer0
10
8.3745053
20
6.8582691
11
8.3049828
21
6.7606314
0
LINE
8
layer0
10
8.3049828
20
6.7606314
11
8.2439057
21
6.6820276
0
LINE
8
layer0
10
8.2439057
20
6.6820276
11
8.1346099
21
6.5537905
0
LINE
8
layer0
10
8.1346099
20
6.5537905
11
8.1128826
21
6.5232227
0
LINE
8
layer0
10
8.1128826
20
6.5232227
11
8.0959606
21
6.4947047
0
LINE
8
layer0
10
8.0959606
20
6.4947047
11
8.0837411
21
6.4684223
0
LINE
8
layer0
10
8.0837411
20
6.4684223
11
8.0761158
21
6.444569
0
LINE
8
layer0
10
8.0761158
20
6.444569
11
8.0729718
21
6.4233105
0
LINE
8
layer0
10
8.0729718
20
6.4233105
11
8.0742068
21
6.4048325
0
LINE
8
layer0
10
8.0742068
20
6.4048325
11
8.079702
21
6.3893085
0
LINE
8
layer0
10
8.079702
20
6.3893085
11
8.1043711
21
6.3568737
0
LINE
8
layer0
10
8.1043711
20
6.3568737
11
8.2195774
21
6.2071368
0
LINE
8
layer0
10
8.2195774
20
6.2071368
11
8.3320705
21
6.0553509
0
LINE
8
layer0
10
8.3320705
20
6.0553509
11
8.3565162
21
6.0227473
0
LINE
8
layer0
10
8.3565162
20
6.0227473
11
8.3699437
21
6.0132135
0
LINE
8
layer0
10
8.3699437
20
6.0132135
11
8.3873784
21
6.006969
0
LINE
8
layer0
10
8.3873784
20
6.006969
11
8.4086857
21
6.0041752
0
LINE
8
layer0
10
8.4086857
20
6.0041752
11
8.4337152
21
6.0049817
0
LINE
8
layer0
10
8.4337152
20
6.0049817
11
8.4623383
21
6.0095422
0
LINE
8
layer0
10
8.4623383
20
6.0095422
11
8.4943985
21
6.0180139
0
LINE
8
layer0
10
8.4943985
20
6.0180139
11
8.5297454
21
6.0305465
0
LINE
8
layer0
10
8.5297454
20
6.0305465
11
8.6829973
21
6.1005762
0
LINE
8
layer0
10
8.6829973
20
6.1005762
11
8.7753151
21
6.1378109
0
LINE
8
layer0
10
8.7753151
20
6.1378109
11
8.8882513
21
6.1779595
0
LINE
8
layer0
10
8.8882513
20
6.1779595
11
9.0185612
21
6.2182334
0
LINE
8
layer0
10
9.0185612
20
6.2182334
11
9.1693428
21
6.2580148
0
LINE
8
layer0
10
9.1693428
20
6.2580148
11
9.3378497
21
6.2950166
0
LINE
8
layer0
10
9.3378497
20
6.2950166
11
9.5269109
21
6.3283302
0
LINE
8
layer0
10
9.5269109
20
6.3283302
11
9.6281653
21
6.3429281
0
LINE
8
layer0
10
9.6281653
20
6.3429281
11
9.8174166
21
6.3646071
0
ARC
8
layer0
10
-0.0000044
20
-0.0000016
40
11.7
50
30.5741655
51
32.9552373
0
LINE
8
layer0
10
10.0733618
20
5.9512415
11
9.969599
21
5.7914938
0
LINE
8
layer0
10
9.969599
20
5.7914938
11
9.9113985
21
5.7073615
0
LINE
8
layer0
10
9.9113985
20
5.7073615
11
9.7973056
21
5.55297
0
LINE
8
layer0
10
9.7973056
20
5.55297
11
9.6890729
21
5.4186219
0
LINE
8
layer0
10
9.6890729
20
5.4186219
11
9.5862529
21
5.3013798
0
LINE
8
layer0
10
9.5862529
20
5.3013798
11
9.492117
21
5.2026828
0
LINE
8
layer0
10
9.492117
20
5.2026828
11
9.4058375
21
5.1194822
0
LINE
8
layer0
10
9.4058375
20
5.1194822
11
9.3313569
21
5.0534396
0
LINE
8
layer0
10
9.3313569
20
5.0534396
11
9.2003586
21
4.9474691
0
LINE
8
layer0
10
9.2003586
20
4.9474691
11
9.1733844
21
4.9214141
0
LINE
8
layer0
10
9.1733844
20
4.9214141
11
9.1515103
21
4.8964912
0
LINE
8
layer0
10
9.1515103
20
4.8964912
11
9.1346696
21
4.8729016
0
LINE
8
layer0
10
9.1346696
20
4.8729016
11
9.122791
21
4.8508556
0
LINE
8
layer0
10
9.122791
20
4.8508556
11
9.1157944
21
4.8305368
0
LINE
8
layer0
10
9.1157944
20
4.8305368
11
9.1136129
21
4.8121464
0
LINE
8
layer0
10
9.1136129
20
4.8121464
11
9.1161621
21
4.7958771
0
LINE
8
layer0
10
9.1161621
20
4.7958771
11
9.1344512
21
4.7594616
0
LINE
8
layer0
10
9.1344512
20
4.7594616
11
9.2201819
21
4.5911051
0
LINE
8
layer0
10
9.2201819
20
4.5911051
11
9.302869
21
4.4212331
0
LINE
8
layer0
10
9.302869
20
4.4212331
11
9.3209075
21
4.3846928
0
LINE
8
layer0
10
9.3209075
20
4.3846928
11
9.3323546
21
4.372854
0
LINE
8
layer0
10
9.3323546
20
4.372854
11
9.348345
21
4.3635122
0
LINE
8
layer0
10
9.348345
20
4.3635122
11
9.3687762
21
4.3568508
0
LINE
8
layer0
10
9.3687762
20
4.3568508
11
9.3935277
21
4.3530444
0
LINE
8
layer0
10
9.3935277
20
4.3530444
11
9.4225014
21
4.3522677
0
LINE
8
layer0
10
9.4225014
20
4.3522677
11
9.4555724
21
4.3547042
0
LINE
8
layer0
10
9.4555724
20
4.3547042
11
9.4926203
21
4.3605284
0
LINE
8
layer0
10
9.4926203
20
4.3605284
11
9.6561307
21
4.4012058
0
LINE
8
layer0
10
9.6561307
20
4.4012058
11
9.7537184
21
4.420843
0
LINE
8
layer0
10
9.7537184
20
4.420843
11
9.872109
21
4.4395561
0
LINE
8
layer0
10
9.872109
20
4.4395561
11
10.0076004
21
4.4551999
0
LINE
8
layer0
10
10.0076004
20
4.4551999
11
10.1631245
21
4.4665978
0
LINE
8
layer0
10
10.1631245
20
4.4665978
11
10.3355614
21
4.4720066
0
LINE
8
layer0
10
10.3355614
20
4.4720066
11
10.5275248
21
4.470013
0
LINE
8
layer0
10
10.5275248
20
4.470013
11
10.6297375
21
4.465757
0
LINE
8
layer0
10
10.6297375
20
4.465757
11
10.81975
21
4.452292
0
ARC
8
layer0
10
-0.0000037
20
-0.0000029
40
11.7
50
19.9859415
51
22.3670132
0
LINE
8
layer0
10
10.9953814
20
3.9989349
11
10.8640318
21
3.8609736
0
LINE
8
layer0
10
10.8640318
20
3.8609736
11
10.791363
21
3.7889681
0
LINE
8
layer0
10
10.791363
20
3.7889681
11
10.6508434
21
3.6581699
0
LINE
8
layer0
10
10.6508434
20
3.6581699
11
10.5197672
21
3.5459971
0
LINE
8
layer0
10
10.5197672
20
3.5459971
11
10.3971547
21
3.4496444
0
LINE
8
layer0
10
10.3971547
20
3.4496444
11
10.2864862
21
3.3699253
0
LINE
8
layer0
10
10.2864862
20
3.3699253
11
10.1863876
21
3.3039952
0
LINE
8
layer0
10
10.1863876
20
3.3039952
11
10.1010399
21
3.2527629
0
LINE
8
layer0
10
10.1010399
20
3.2527629
11
9.9528
21
3.1726676
0
LINE
8
layer0
10
9.9528
20
3.1726676
11
9.9214976
21
3.1520127
0
LINE
8
layer0
10
9.9214976
20
3.1520127
11
9.8954163
21
3.1315335
0
LINE
8
layer0
10
9.8954163
20
3.1315335
11
9.8745278
21
3.11144
0
LINE
8
layer0
10
9.8745278
20
3.11144
11
9.8588005
21
3.0919521
0
LINE
8
layer0
10
9.8588005
20
3.0919521
11
9.8481894
21
3.0732649
0
LINE
8
layer0
10
9.8481894
20
3.0732649
11
9.842666
21
3.0555885
0
LINE
8
layer0
10
9.842666
20
3.0555885
11
9.8421822
21
3.0391278
0
LINE
8
layer0
10
9.8421822
20
3.0391278
11
9.8534686
21
2.9999717
0
LINE
8
layer0
10
9.8534686
20
2.9999717
11
9.9068041
21
2.8187288
0
LINE
8
layer0
10
9.9068041
20
2.8187288
11
9.9568694
21
2.6365555
0
LINE
8
layer0
10
9.9568694
20
2.6365555
11
9.9678865
21
2.5973228
0
LINE
8
layer0
10
9.9678865
20
2.5973228
11
9.9769633
21
2.5835822
0
LINE
8
layer0
10
9.9769633
20
2.5835822
11
9.9909649
21
2.5714612
0
LINE
8
layer0
10
9.9909649
20
2.5714612
11
10.0098242
21
2.561159
0
LINE
8
layer0
10
10.0098242
20
2.561159
11
10.0334548
21
2.5528694
0
LINE
8
layer0
10
10.0334548
20
2.5528694
11
10.0617925
21
2.546782
0
LINE
8
layer0
10
10.0617925
20
2.546782
11
10.0947481
21
2.5431002
0
LINE
8
layer0
10
10.0947481
20
2.5431002
11
10.1322354
21
2.5420177
0
LINE
8
layer0
10
10.1322354
20
2.5420177
11
10.3004362
21
2.5519575
0
LINE
8
layer0
10
10.3004362
20
2.5519575
11
10.3999706
21
2.5533287
0
LINE
8
layer0
10
10.3999706
20
2.5533287
11
10.5197839
21
2.5499689
0
LINE
8
layer0
10
10.5197839
20
2.5499689
11
10.6558428
21
2.5404499
0
LINE
8
layer0
10
10.6558428
20
2.5404499
11
10.8108132
21
2.5230763
0
LINE
8
layer0
10
10.8108132
20
2.5230763
11
10.9813079
21
2.4967078
0
LINE
8
layer0
10
10.9813079
20
2.4967078
11
11.1696364
21
2.459475
0
LINE
8
layer0
10
11.1696364
20
2.459475
11
11.2693267
21
2.4365098
0
LINE
8
layer0
10
11.2693267
20
2.4365098
11
11.4536297
21
2.3883594
0
ARC
8
layer0
10
-0.0000043
20
-0.0000018
40
11.7
50
9.397704
51
11.7787759
0
LINE
8
layer0
10
11.5429665
20
1.9104494
11
11.3885031
21
1.7989726
0
LINE
8
layer1
10
11.3885031
20
1.7989726
11
11.3038406
21
1.741546
0
LINE
8
layer1
10
11.3038406
20
1.741546
11
11.1416795
21
1.6387953
0
LINE
8
layer1
10
11.1416795
20
1.6387953
11
10.9922234
21
1.5526176
0
LINE
8
layer1
10
10.9922234
20
1.5526176
11
10.8539939
21
1.4804355
0
LINE
8
layer1
10
10.8539939
20
1.4804355
11
10.7305613
21
1.422409
0
LINE
8
layer1
10
10.7305613
20
1.422409
11
10.6200525
21
1.3759946
0
LINE
8
layer1
10
10.6200525
20
1.3759946
11
10.5267441
21
1.3413172
0
LINE
8
layer1
10
10.5267441
20
1.3413172
11
10.3663108
21
1.2898247
0
LINE
8
layer1
10
10.3663108
20
1.2898247
11
10.331746
21
1.2752733
0
LINE
8
layer1
10
10.331746
20
1.2752733
11
10.3023458
21
1.2599352
0
LINE
8
layer1
10
10.3023458
20
1.2599352
11
10.2781208
21
1.2440221
0
LINE
8
layer1
10
10.2781208
20
1.2440221
11
10.2590804
21
1.2277559
0
LINE
8
layer1
10
10.2590804
20
1.2277559
11
10.2452162
21
1.2113366
0
LINE
8
layer1
10
10.2452162
20
1.2113366
11
10.2365388
21
1.1949762
0
LINE
8
layer1
10
10.2365388
20
1.1949762
11
10.2330386
21
1.1788846
0
LINE
8
layer1
10
10.2330386
20
1.1788846
11
10.2369379
21
1.1383213
0
LINE
8
layer1
10
10.2369379
20
1.1383213
11
10.256062
21
0.9503641
0
LINE
8
layer1
10
10.256062
20
0.9503641
11
10.2718006
21
0.7620931
0
LINE
8
layer1
10
10.2718006
20
0.7620931
11
10.2754211
21
0.7215041
0
LINE
8
layer1
10
10.2754211
20
0.7215041
11
10.2818186
21
0.7063296
0
LINE
8
layer1
10
10.2818186
20
0.7063296
11
10.2933545
21
0.6918422
0
LINE
8
layer1
10
10.2933545
20
0.6918422
11
10.3099996
21
0.67825
0
LINE
8
layer1
10
10.3099996
20
0.67825
11
10.3317047
21
0.6657595
0
LINE
8
layer1
10
10.3317047
20
0.6657595
11
10.3584413
21
0.6545687
0
LINE
8
layer1
10
10.3584413
20
0.6545687
11
10.3901593
21
0.644894
0
LINE
8
layer1
10
10.3901593
20
0.644894
11
10.4268094
21
0.6369417
0
LINE
8
layer1
10
10.4268094
20
0.6369417
11
10.5939727
21
0.6158054
0
LINE
8
layer1
10
10.5939727
20
0.6158054
11
10.6920643
21
0.5988639
0
LINE
8
layer1
10
10.6920643
20
0.5988639
11
10.8092201
21
0.5735457
0
LINE
8
layer1
10
10.8092201
20
0.5735457
11
10.9412133
21
0.5391879
0
LINE
8
layer1
10
10.9412133
20
0.5391879
11
11.0903527
21
0.4936344
0
LINE
8
layer1
10
11.0903527
20
0.4936344
11
11.2530991
21
0.4363865
0
LINE
8
layer1
10
11.2530991
20
0.4363865
11
11.4313795
21
0.3651824
0
LINE
8
layer1
10
11.4313795
20
0.3651824
11
11.5251525
21
0.3242903
0
LINE
8
layer1
10
11.5251525
20
0.3242903
11
11.6974697
21
0.2430941
0
ARC
8
layer1
10
-0.0000046
20
-1e-7
40
11.7
50
358.8094642
51
361.1905362
0
LINE
8
layer1
10
11.6974697
20
-0.2430941
11
11.5251525
21
-0.3242903
0
LINE
8
layer1
10
11.5251525
20
-0.3242903
11
11.4313795
21
-0.3651824
0
LINE
8
layer1
10
11.4313795
20
-0.3651824
11
11.2530991
21
-0.4363865
0
LINE
8
layer1
10
11.2530991
20
-0.4363865
11
11.0903527
21
-0.4936344
0
LINE
8
layer1
10
11.0903527
20
-0.4936344
11
10.9412133
21
-0.5391879
0
LINE
8
layer1
10
10.9412133
20
-0.5391879
11
10.8092201
21
-0.5735457
0
LINE
8
layer1
10
10.8092201
20
-0.5735457
11
10.6920643
21
-0.5988639
0
LINE
8
layer1
10
10.6920643
20
-0.5988639
11
10.5939727
21
-0.6158054
0
LINE
8
layer1
10
10.5939727
20
-0.6158054
11
10.4268094
21
-0.6369417
0
LINE
8
layer1
10
10.4268094
20
-0.6369417
11
10.3901593
21
-0.644894
0
LINE
8
layer1
10
10.3901593
20
-0.644894
11
10.3584413
21
-0.6545687
0
LINE
8
layer1
10
10.3584413
20
-0.6545687
11
10.3317047
21
-0.6657595
0
LINE
8
layer1
10
10.3317047
20
-0.6657595
11
10.3099996
21
-0.67825
0
LINE
8
layer1
10
10.3099996
20
-0.67825
11
10.2933545
21
-0.6918422
0
LINE
8
layer1
10
10.2933545
20
-0.6918422
11
10.2818186
21
-0.7063296
0
LINE
8
layer1
10
10.2818186
20
-0.7063296
11
10.2754211
21
-0.7215041
0
LINE
8
layer1
10
10.2754211
20
-0.7215041
11
10.2718006
21
-0.7620931
0
LINE
8
layer1
10
10.2718006
20
-0.7620931
11
10.256062
21
-0.9503641
0
LINE
8
layer1
10
10.256062
20
-0.9503641
11
10.2369379
21
-1.1383213
0
LINE
8
layer1
10
10.2369379
20
-1.1383213
11
10.2330386
21
-1.1788846
0
LINE
8
layer1
10
10.2330386
20
-1.1788846
11
10.2365388
21
-1.1949762
0
LINE
8
layer1
10
10.2365388
20
-1.1949762
11
10.2452162
21
-1.2113366
0
LINE
8
layer1
10
10.2452162
20
-1.2113366
11
10.2590804
21
-1.2277559
0
LINE
8
layer1
10
10.2590804
20
-1.2277559
11
10.2781208
21
-1.2440221
0
LINE
8
layer1
10
10.2781208
20
-1.2440221
11
10.3023458
21
-1.2599352
0
LINE
8
layer1
10
10.3023458
20
-1.2599352
11
10.331746
21
-1.2752733
0
LINE
8
layer1
10
10.331746
20
-1.2752733
11
10.3663108
21
-1.2898247
0
LINE
8
layer1
10
10.3663108
20
-1.2898247
11
10.5267441
21
-1.3413172
0
LINE
8
layer1
10
10.5267441
20
-1.3413172
11
10.6200525
21
-1.3759946
0
LINE
8
layer1
10
10.6200525
20
-1.3759946
11
10.7305613
21
-1.422409
0
LINE
8
layer1
10
10.7305613
20
-1.422409
11
10.8539939
21
-1.4804355
0
LINE
8
layer1
10
10.8539939
20
-1.4804355
11
10.9922234
21
-1.5526176
0
LINE
8
layer1
10
10.9922234
20
-1.5526176
11
11.1416795
21
-1.6387953
0
LINE
8
layer1
10
11.1416795
20
-1.6387953
11
11.3038406
21
-1.741546
0
LINE
8
layer1
10
11.3038406
20
-1.741546
11
11.3885031
21
-1.7989726
0
LINE
8
layer1
10
11.3885031
20
-1.7989726
11
11.5429665
21
-1.9104494
0
ARC
8
layer1
10
-0.0000044
20
0.0000017
40
11.7
50
348.2212246
51
350.6022965
0
LINE
8
layer1
10
11.4536297
20
-2.3883594
11
11.2693267
21
-2.4365098
0
LINE
8
layer1
10
11.2693267
20
-2.4365098
11
11.1696364
21
-2.459475
0
LINE
8
layer1
10
11.1696364
20
-2.459475
11
10.9813079
21
-2.4967078
0
LINE
8
layer1
10
10.9813079
20
-2.4967078
11
10.8108132
21
-2.5230763
0
LINE
8
layer1
10
10.8108132
20
-2.5230763
11
10.6558428
21
-2.5404499
0
LINE
8
layer1
10
10.6558428
20
-2.5404499
11
10.5197839
21
-2.5499689
0
LINE
8
layer1
10
10.5197839
20
-2.5499689
11
10.3999706
21
-2.5533287
0
LINE
8
layer1
10
10.3999706
20
-2.5533287
11
10.3004362
21
-2.5519575
0
LINE
8
layer1
10
10.3004362
20
-2.5519575
11
10.1322354
21
-2.5420177
0
LINE
8
layer1
10
10.1322354
20
-2.5420177
11
10.0947481
21
-2.5431002
0
LINE
8
layer1
10
10.0947481
20
-2.5431002
11
10.0617925
21
-2.546782
0
LINE
8
layer1
10
10.0617925
20
-2.546782
11
10.0334548
21
-2.5528694
0
LINE
8
layer1
10
10.0334548
20
-2.5528694
11
10.0098242
21
-2.561159
0
LINE
8
layer1
10
10.0098242
20
-2.561159
11
9.9909649
21
-2.5714612
0
LINE
8
layer1
10
9.9909649
20
-2.5714612
11
9.9769633
21
-2.5835822
0
LINE
8
layer1
10
9.9769633
20
-2.5835822
11
9.9678865
21
-2.5973228
0
LINE
8
layer1
10
9.9678865
20
-2.5973228
11
9.9568694
21
-2.6365555
0
LINE
8
layer1
10
9.9568694
20
-2.6365555
11
9.9068041
21
-2.8187288
0
LINE
8
layer1
10
9.9068041
20
-2.8187288
11
9.8534686
21
-2.9999717
0
LINE
8
layer1
10
9.8534686
20
-2.9999717
11
9.8421822
21
-3.0391278
0
LINE
8
layer1
10
9.8421822
20
-3.0391278
11
9.842666
21
-3.0555885
0
LINE
8
layer1
10
9.842666
20
-3.0555885
11
9.8481894
21
-3.0732649
0
LINE
8
layer1
10
9.8481894
20
-3.0732649
11
9.8588005
21
-3.0919521
0
LINE
8
layer1
10
9.8588005
20
-3.0919521
11
9.8745278
21
-3.11144
0
LINE
8
layer1
10
9.8745278
20
-3.11144
11
9.8954163
21
-3.1315335
0
LINE
8
layer1
10
9.8954163
20
-3.1315335
11
9.9214976
21
-3.1520127
0
LINE
8
layer1
10
9.9214976
20
-3.1520127
11
9.9528
21
-3.1726676
0
LINE
8
layer1
10
9.9528
20
-3.1726676
11
10.1010399
21
-3.2527629
0
LINE
8
layer1
10
10.1010399
20
-3.2527629
11
10.1863876
21
-3.3039952
0
LINE
8
layer1
10
10.1863876
20
-3.3039952
11
10.2864862
21
-3.3699253
0
LINE
8
layer1
10
10.2864862
20
-3.3699253
11
10.3971547
21
-3.4496444
0
LINE
8
layer1
10
10.3971547
20
-3.4496444
11
10.5197672
21
-3.5459971
0
LINE
8
layer1
10
10.5197672
20
-3.5459971
11
10.6508434
21
-3.6581699
0
LINE
8
layer1
10
10.6508434
20
-3.6581699
11
10.791363
21
-3.7889681
0
LINE
8
layer1
10
10.791363
20
-3.7889681
11
10.8640318
21
-3.8609736
0
LINE
8
layer1
10
10.8640318
20
-3.8609736
11
10.9953814
21
-3.9989349
0
ARC
8
layer1
10
-0.0000038
20
0.000003
40
11.7
50
337.6329868
51
340.0140585
0
LINE
8
layer1
10
10.81975
20
-4.452292
11
10.6297375
21
-4.465757
0
LINE
8
layer1
10
10.6297375
20
-4.465757
11
10.5275248
21
-4.470013
0
LINE
8
layer1
10
10.5275248
20
-4.470013
11
10.3355614
21
-4.4720066
0
LINE
8
layer1
10
10.3355614
20
-4.4720066
11
10.1631245
21
-4.4665978
0
LINE
8
layer1
10
10.1631245
20
-4.4665978
11
10.0076004
21
-4.4551999
0
LINE
8
layer1
10
10.0076004
20
-4.4551999
11
9.872109
21
-4.4395561
0
LINE
8
layer1
10
9.872109
20
-4.4395561
11
9.7537184
21
-4.420843
0
LINE
8
layer1
10
9.7537184
20
-4.420843
11
9.6561307
21
-4.4012058
0
LINE
8
layer1
10
9.6561307
20
-4.4012058
11
9.4926203
21
-4.3605284
0
LINE
8
layer1
10
9.4926203
20
-4.3605284
11
9.4555724
21
-4.3547042
0
LINE
8
layer1
10
9.4555724
20
-4.3547042
11
9.4225014
21
-4.3522677
0
LINE
8
layer1
10
9.4225014
20
-4.3522677
11
9.3935277
21
-4.3530444
0
LINE
8
layer1
10
9.3935277
20
-4.3530444
11
9.3687762
21
-4.3568508
0
LINE
8
layer1
10
9.3687762
20
-4.3568508
11
9.348345
21
-4.3635122
0
LINE
8
layer1
10
9.348345
20
-4.3635122
11
9.3323546
21
-4.372854
0
LINE
8
layer1
10
9.3323546
20
-4.372854
11
9.3209075
21
-4.3846928
0
LINE
8
layer1
10
9.3209075
20
-4.3846928
11
9.302869
21
-4.4212331
0
LINE
8
layer1
10
9.302869
20
-4.4212331
11
9.2201819
21
-4.5911051
0
LINE
8
layer1
10
9.2201819
20
-4.5911051
11
9.1344512
21
-4.7594616
0
LINE
8
layer1
10
9.1344512
20
-4.7594616
11
9.1161621
21
-4.7958771
0
LINE
8
layer1
10
9.1161621
20
-4.7958771
11
9.1136129
21
-4.8121464
0
LINE
8
layer1
10
9.1136129
20
-4.8121464
11
9.1157944
21
-4.8305368
0
LINE
8
layer1
10
9.1157944
20
-4.8305368
11
9.122791
21
-4.8508556
0
LINE
8
layer1
10
9.122791
20
-4.8508556
11
9.1346696
21
-4.8729016
0
LINE
8
layer1
10
9.1346696
20
-4.8729016
11
9.1515103
21
-4.8964912
0
LINE
8
layer1
10
9.1515103
20
-4.8964912
11
9.1733844
21
-4.9214141
0
LINE
8
layer1
10
9.1733844
20
-4.9214141
11
9.2003586
21
-4.9474691
0
LINE
8
layer1
10
9.2003586
20
-4.9474691
11
9.3313569
21
-5.0534396
0
LINE
8
layer1
10
9.3313569
20
-5.0534396
11
9.4058375
21
-5.1194822
0
LINE
8
layer1
10
9.4058375
20
-5.1194822
11
9.492117
21
-5.2026828
0
LINE
8
layer1
10
9.492117
20
-5.2026828
11
9.5862529
21
-5.3013798
0
LINE
8
layer1
10
9.5862529
20
-5.3013798
11
9.6890729
21
-5.4186219
0
LINE
8
layer1
10
9.6890729
20
-5.4186219
11
9.7973056
21
-5.55297
0
LINE
8
layer1
10
9.7973056
20
-5.55297
11
9.9113985
21
-5.7073615
0
LINE
8
layer1
10
9.9113985
20
-5.7073615
11
9.969599
21
-5.7914938
0
LINE
8
layer1
10
9.969599
20
-5.7914938
11
10.0733618
21
-5.9512415
0
ARC
8
layer1
10
-0.0000043
20
0.0000017
40
11.7
50
327.0447623
51
329.4258341
0
LINE
8
layer1
10
9.8174166
20
-6.3646071
11
9.6281653
21
-6.3429281
0
LINE
8
layer1
10
9.6281653
20
-6.3429281
11
9.5269109
21
-6.3283302
0
LINE
8
layer1
10
9.5269109
20
-6.3283302
11
9.3378497
21
-6.2950166
0
LINE
8
layer1
10
9.3378497
20
-6.2950166
11
9.1693428
21
-6.2580148
0
LINE
8
layer1
10
9.1693428
20
-6.2580148
11
9.0185612
21
-6.2182334
0
LINE
8
layer1
10
9.0185612
20
-6.2182334
11
8.8882513
21
-6.1779595
0
LINE
8
layer1
10
8.8882513
20
-6.1779595
11
8.7753151
21
-6.1378109
0
LINE
8
layer1
10
8.7753151
20
-6.1378109
11
8.6829973
21
-6.1005762
0
LINE
8
layer1
10
8.6829973
20
-6.1005762
11
8.5297454
21
-6.0305465
0
LINE
8
layer1
10
8.5297454
20
-6.0305465
11
8.4943985
21
-6.0180139
0
LINE
8
layer1
10
8.4943985
20
-6.0180139
11
8.4623383
21
-6.0095422
0
LINE
8
layer1
10
8.4623383
20
-6.0095422
11
8.4337152
21
-6.0049817
0
LINE
8
layer1
10
8.4337152
20
-6.0049817
11
8.4086857
21
-6.0041752
0
LINE
8
layer1
10
8.4086857
20
-6.0041752
11
8.3873784
21
-6.006969
0
LINE
8
layer1
10
8.3873784
20
-6.006969
11
8.3699437
21
-6.0132135
0
LINE
8
layer1
10
8.3699437
20
-6.0132135
11
8.3565162
21
-6.0227473
0
LINE
8
layer1
10
8.3565162
20
-6.0227473
11
8.3320705
21
-6.0553509
0
LINE
8
layer1
10
8.3320705
20
-6.0553509
11
8.2195774
21
-6.2071368
0
LINE
8
layer1
10
8.2195774
20
-6.2071368
11
8.1043711
21
-6.3568737
0
LINE
8
layer1
10
8.1043711
20
-6.3568737
11
8.079702
21
-6.3893085
0
LINE
8
layer1
10
8.079702
20
-6.3893085
11
8.0742068
21
-6.4048325
0
LINE
8
layer1
10
8.0742068
20
-6.4048325
11
8.0729718
21
-6.4233105
0
LINE
8
layer1
10
8.0729718
20
-6.4233105
11
8.0761158
21
-6.444569
0
LINE
8
layer1
10
8.0761158
20
-6.444569
11
8.0837411
21
-6.4684223
0
LINE
8
layer1
10
8.0837411
20
-6.4684223
11
8.0959606
21
-6.4947047
0
LINE
8
layer1
10
8.0959606
20
-6.4947047
11
8.1128826
21
-6.5232227
0
LINE
8
layer1
10
8.1128826
20
-6.5232227
11
8.1346099
21
-6.5537905
0
LINE
8
layer1
10
8.1346099
20
-6.5537905
11
8.2439057
21
-6.6820276
0
LINE
8
layer1
10
8.2439057
20
-6.6820276
11
8.3049828
21
-6.7606314
0
LINE
8
layer1
10
8.3049828
20
-6.7606314
11
8.3745053
21
-6.8582691
0
LINE
8
layer1
10
8.3745053
20
-6.8582691
11
8.4489027
21
-6.9725831
0
LINE
8
layer1
10
8.4489027
20
-6.9725831
11
8.5284289
21
-7.106722
0
LINE
8
layer1
10
8.5284289
20
-7.106722
11
8.6101323
21
-7.2586703
0
LINE
8
layer1
10
8.6101323
20
-7.2586703
11
8.6939132
21
-7.4313975
0
LINE
8
layer1
10
8.6939132
20
-7.4313975
11
8.7356634
21
-7.5247916
0
LINE
8
layer1
10
8.7356634
20
-7.5247916
11
8.8083059
21
-7.7008857
0
ARC
8
layer1
10
-0.000004
20
0.0000024
40
11.7
50
316.4565272
51
318.8375991
0
LINE
8
layer1
10
8.480763
20
-8.0601831
11
8.2987175
21
-8.0040985
0
LINE
8
layer1
10
8.2987175
20
-8.0040985
11
8.2018695
21
-7.9711436
0
LINE
8
layer1
10
8.2018695
20
-7.9711436
11
8.0221488
21
-7.9036574
0
LINE
8
layer1
10
8.0221488
20
-7.9036574
11
7.8633102
21
-7.8363225
0
LINE
8
layer1
10
7.8633102
20
-7.8363225
11
7.7224057
21
-7.7695124
0
LINE
8
layer1
10
7.7224057
20
-7.7695124
11
7.6017148
21
-7.7059799
0
LINE
8
layer1
10
7.6017148
20
-7.7059799
11
7.4980789
21
-7.6457629
0
LINE
8
layer1
10
7.4980789
20
-7.6457629
11
7.4141749
21
-7.5921989
0
LINE
8
layer1
10
7.4141749
20
-7.5921989
11
7.2764003
21
-7.4952016
0
LINE
8
layer1
10
7.2764003
20
-7.4952016
11
7.2439581
21
-7.4763874
0
LINE
8
layer1
10
7.2439581
20
-7.4763874
11
7.2140004
21
-7.4621689
0
LINE
8
layer1
10
7.2140004
20
-7.4621689
11
7.1867027
21
-7.4524266
0
LINE
8
layer1
10
7.1867027
20
-7.4524266
11
7.1622476
21
-7.4470347
0
LINE
8
layer1
10
7.1622476
20
-7.4470347
11
7.1407897
21
-7.4458656
0
LINE
8
layer1
10
7.1407897
20
-7.4458656
11
7.1225044
21
-7.4488002
0
LINE
8
layer1
10
7.1225044
20
-7.4488002
11
7.1075537
21
-7.4557044
0
LINE
8
layer1
10
7.1075537
20
-7.4557044
11
7.0775334
21
-7.483261
0
LINE
8
layer1
10
7.0775334
20
-7.483261
11
6.9390651
21
-7.6117918
0
LINE
8
layer1
10
6.9390651
20
-7.6117918
11
6.7983063
21
-7.7378101
0
LINE
8
layer1
10
6.7983063
20
-7.7378101
11
6.7680974
21
-7.7651597
0
LINE
8
layer1
10
6.7680974
20
-7.7651597
11
6.7598432
21
-7.7794096
0
LINE
8
layer1
10
6.7598432
20
-7.7794096
11
6.7552339
21
-7.7973461
0
LINE
8
layer1
10
6.7552339
20
-7.7973461
11
6.7544181
21
-7.8188203
0
LINE
8
layer1
10
6.7544181
20
-7.8188203
11
6.7575306
21
-7.8436686
0
LINE
8
layer1
10
6.7575306
20
-7.8436686
11
6.7647126
21
-7.8717489
0
LINE
8
layer1
10
6.7647126
20
-7.8717489
11
6.7761063
21
-7.9028907
0
LINE
8
layer1
10
6.7761063
20
-7.9028907
11
6.7918469
21
-7.9369304
0
LINE
8
layer1
10
6.7918469
20
-7.9369304
11
6.8757182
21
-8.083067
0
LINE
8
layer1
10
6.8757182
20
-8.083067
11
6.921312
21
-8.1715554
0
LINE
8
layer1
10
6.921312
20
-8.1715554
11
6.9717097
21
-8.2803054
0
LINE
8
layer1
10
6.9717097
20
-8.2803054
11
7.0238353
21
-8.4063434
0
LINE
8
layer1
10
7.0238353
20
-8.4063434
11
7.0773594
21
-8.5528113
0
LINE
8
layer1
10
7.0773594
20
-8.5528113
11
7.1297512
21
-8.7171853
0
LINE
8
layer1
10
7.1297512
20
-8.7171853
11
7.1803671
21
-8.9023662
0
LINE
8
layer1
10
7.1803671
20
-8.9023662
11
7.2042453
21
-9.0018417
0
LINE
8
layer1
10
7.2042453
20
-9.0018417
11
7.2432937
21
-9.1882854
0
ARC
8
layer1
10
-0.0000031
20
0.0000034
40
11.7
50
305.8682897
51
308.2493615
0
LINE
8
layer1
10
6.8553071
20
-9.4812793
11
6.6866669
21
-9.3926988
0
LINE
8
layer1
10
6.6866669
20
-9.3926988
11
6.5975233
21
-9.3425093
0
LINE
8
layer1
10
6.5975233
20
-9.3425093
11
6.4332633
21
-9.2431486
0
LINE
8
layer1
10
6.4332633
20
-9.2431486
11
6.2895019
21
-9.1477737
0
LINE
8
layer1
10
6.2895019
20
-9.1477737
11
6.1632729
21
-9.05621
0
LINE
8
layer1
10
6.1632729
20
-9.05621
11
6.0563111
21
-8.9715823
0
LINE
8
layer1
10
6.0563111
20
-8.9715823
11
5.9655046
21
-8.8933476
0
LINE
8
layer1
10
5.9655046
20
-8.8933476
11
5.8928716
21
-8.8252784
0
LINE
8
layer1
10
5.8928716
20
-8.8252784
11
5.775266
21
-8.7046166
0
LINE
8
layer1
10
5.775266
20
-8.7046166
11
5.7468334
21
-8.6801615
0
LINE
8
layer1
10
5.7468334
20
-8.6801615
11
5.7199984
21
-8.6606804
0
LINE
8
layer1
10
5.7199984
20
-8.6606804
11
5.6949556
21
-8.646088
0
LINE
8
layer1
10
5.6949556
20
-8.646088
11
5.6719077
21
-8.6362943
0
LINE
8
layer1
10
5.6719077
20
-8.6362943
11
5.6510299
21
-8.6312023
0
LINE
8
layer1
10
5.6510299
20
-8.6312023
11
5.6325168
21
-8.630727
0
LINE
8
layer1
10
5.6325168
20
-8.630727
11
5.616552
21
-8.6347664
0
LINE
8
layer1
10
5.616552
20
-8.6347664
11
5.5819794
21
-8.6563376
0
LINE
8
layer1
10
5.5819794
20
-8.6563376
11
5.4222513
21
-8.7572365
0
LINE
8
layer1
10
5.4222513
20
-8.7572365
11
5.2607333
21
-8.8552447
0
LINE
8
layer1
10
5.2607333
20
-8.8552447
11
5.2260133
21
-8.8765778
0
LINE
8
layer1
10
5.2260133
20
-8.8765778
11
5.2152812
21
-8.8890683
0
LINE
8
layer1
10
5.2152812
20
-8.8890683
11
5.2074547
21
-8.9058525
0
LINE
8
layer1
10
5.2074547
20
-8.9058525
11
5.2027068
21
-8.9268111
0
LINE
8
layer1
10
5.2027068
20
-8.9268111
11
5.2012005
21
-8.9518083
0
LINE
8
layer1
10
5.2012005
20
-8.9518083
11
5.2031004
21
-8.9807301
0
LINE
8
layer1
10
5.2031004
20
-8.9807301
11
5.2085779
21
-9.0134352
0
LINE
8
layer1
10
5.2085779
20
-9.0134352
11
5.2177957
21
-9.0497877
0
LINE
8
layer1
10
5.2177957
20
-9.0497877
11
5.2733863
21
-9.2088474
0
LINE
8
layer1
10
5.2733863
20
-9.2088474
11
5.3019441
21
-9.3042068
0
LINE
8
layer1
10
5.3019441
20
-9.3042068
11
5.331501
21
-9.4203658
0
LINE
8
layer1
10
5.331501
20
-9.4203658
11
5.3595796
21
-9.5538358
0
LINE
8
layer1
10
5.3595796
20
-9.5538358
11
5.385279
21
-9.7076448
0
LINE
8
layer1
10
5.385279
20
-9.7076448
11
5.4065751
21
-9.878847
0
LINE
8
layer1
10
5.4065751
20
-9.878847
11
5.4223022
21
-10.0701754
0
LINE
8
layer1
10
5.4223022
20
-10.0701754
11
5.4274953
21
-10.1723449
0
LINE
8
layer1
10
5.4274953
20
-10.1723449
11
5.4316199
21
-10.3627891
0
ARC
8
layer1
10
-0.0000027
20
0.0000038
40
11.7
50
295.2800559
51
297.6611279
0
LINE
8
layer1
10
4.996402
20
-10.5795019
11
4.8469098
21
-10.4614421
0
LINE
8
layer1
10
4.8469098
20
-10.4614421
11
4.7685064
21
-10.3957271
0
LINE
8
layer1
10
4.7685064
20
-10.3957271
11
4.6253007
21
-10.2678754
0
LINE
8
layer1
10
4.6253007
20
-10.2678754
11
4.5015122
21
-10.1477084
0
LINE
8
layer1
10
4.5015122
20
-10.1477084
11
4.3942572
21
-10.0345092
0
LINE
8
layer1
10
4.3942572
20
-10.0345092
11
4.304667
21
-9.9316683
0
LINE
8
layer1
10
4.304667
20
-9.9316683
11
4.2297822
21
-9.83808
0
LINE
8
layer1
10
4.2297822
20
-9.83808
11
4.1708936
21
-9.7578235
0
LINE
8
layer1
10
4.1708936
20
-9.7578235
11
4.0774621
21
-9.6176063
0
LINE
8
layer1
10
4.0774621
20
-9.6176063
11
4.0540071
21
-9.5883432
0
LINE
8
layer1
10
4.0540071
20
-9.5883432
11
4.0312088
21
-9.5642628
0
LINE
8
layer1
10
4.0312088
20
-9.5642628
11
4.0092736
21
-9.5453173
0
LINE
8
layer1
10
4.0092736
20
-9.5453173
11
3.9884177
21
-9.5314553
0
LINE
8
layer1
10
3.9884177
20
-9.5314553
11
3.9688312
21
-9.5226137
0
LINE
8
layer1
10
3.9688312
20
-9.5226137
11
3.9507206
21
-9.5187447
0
LINE
8
layer1
10
3.9507206
20
-9.5187447
11
3.9342854
21
-9.5197818
0
LINE
8
layer1
10
3.9342854
20
-9.5197818
11
3.8963377
21
-9.534633
0
LINE
8
layer1
10
3.8963377
20
-9.534633
11
3.7207892
21
-9.604464
0
LINE
8
layer1
10
3.7207892
20
-9.604464
11
3.5440124
21
-9.6711245
0
LINE
8
layer1
10
3.5440124
20
-9.6711245
11
3.5059636
21
-9.6857146
0
LINE
8
layer1
10
3.5059636
20
-9.6857146
11
3.4931191
21
-9.6960205
0
LINE
8
layer1
10
3.4931191
20
-9.6960205
11
3.4823417
21
-9.7110807
0
LINE
8
layer1
10
3.4823417
20
-9.7110807
11
3.4738236
21
-9.7308101
0
LINE
8
layer1
10
3.4738236
20
-9.7308101
11
3.4677497
21
-9.7551048
0
LINE
8
layer1
10
3.4677497
20
-9.7551048
11
3.4643029
21
-9.7838833
0
LINE
8
layer1
10
3.4643029
20
-9.7838833
11
3.4636776
21
-9.817038
0
LINE
8
layer1
10
3.4636776
20
-9.817038
11
3.4660587
21
-9.8544653
0
LINE
8
layer1
10
3.4660587
20
-9.8544653
11
3.4914757
21
-10.0210314
0
LINE
8
layer1
10
3.4914757
20
-10.0210314
11
3.5020249
21
-10.1200147
0
LINE
8
layer1
10
3.5020249
20
-10.1200147
11
3.5097344
21
-10.2396269
0
LINE
8
layer1
10
3.5097344
20
-10.2396269
11
3.5128099
21
-10.3759838
0
LINE
8
layer1
10
3.5128099
20
-10.3759838
11
3.5098093
21
-10.5318961
0
LINE
8
layer1
10
3.5098093
20
-10.5318961
11
3.4992845
21
-10.7040964
0
LINE
8
layer1
10
3.4992845
20
-10.7040964
11
3.4795873
21
-10.895057
0
LINE
8
layer1
10
3.4795873
20
-10.895057
11
3.4659184
21
-10.996441
0
LINE
8
layer1
10
3.4659184
20
-10.996441
11
3.4349787
21
-11.1844005
0
ARC
8
layer1
10
-7e-7
20
0.0000045
40
11.7
50
284.6918144
51
287.072886
0
LINE
8
layer1
10
2.9673504
20
-11.3174522
11
2.842097
21
-11.1739335
0
LINE
8
layer1
10
2.842097
20
-11.1739335
11
2.7771037
21
-11.0949308
0
LINE
8
layer1
10
2.7771037
20
-11.0949308
11
2.659829
21
-10.9429421
0
LINE
8
layer1
10
2.659829
20
-10.9429421
11
2.5602288
21
-10.802075
0
LINE
8
layer1
10
2.5602288
20
-10.802075
11
2.4756004
21
-10.6710953
0
LINE
8
layer1
10
2.4756004
20
-10.6710953
11
2.4064326
21
-10.5535433
0
LINE
8
layer1
10
2.4064326
20
-10.5535433
11
2.3500196
21
-10.4477885
0
LINE
8
layer1
10
2.3500196
20
-10.4477885
11
2.3068808
21
-10.3580777
0
LINE
8
layer1
10
2.3068808
20
-10.3580777
11
2.240805
21
-10.20308
0
LINE
8
layer1
10
2.240805
20
-10.20308
11
2.2231265
21
-10.1700052
0
LINE
8
layer1
10
2.2231265
20
-10.1700052
11
2.2051411
21
-10.1421457
0
LINE
8
layer1
10
2.2051411
20
-10.1421457
11
2.1870607
21
-10.1194922
0
LINE
8
layer1
10
2.1870607
20
-10.1194922
11
2.169107
21
-10.102034
0
LINE
8
layer1
10
2.169107
20
-10.102034
11
2.1514786
21
-10.0897439
0
LINE
8
layer1
10
2.1514786
20
-10.0897439
11
2.1343873
21
-10.082613
0
LINE
8
layer1
10
2.1343873
20
-10.082613
11
2.1180414
21
-10.0806125
0
LINE
8
layer1
10
2.1180414
20
-10.0806125
11
2.0780109
21
-10.0882379
0
LINE
8
layer1
10
2.0780109
20
-10.0882379
11
1.89262
21
-10.1246229
0
LINE
8
layer1
10
1.89262
20
-10.1246229
11
1.7066044
21
-10.1576658
0
LINE
8
layer1
10
1.7066044
20
-10.1576658
11
1.6665225
21
-10.165016
0
LINE
8
layer1
10
1.6665225
20
-10.165016
11
1.6520031
21
-10.1727863
0
LINE
8
layer1
10
1.6520031
20
-10.1727863
11
1.6386419
21
-10.1856097
0
LINE
8
layer1
10
1.6386419
20
-10.1856097
11
1.6266435
21
-10.203438
0
LINE
8
layer1
10
1.6266435
20
-10.203438
11
1.6162089
21
-10.2262029
0
LINE
8
layer1
10
1.6162089
20
-10.2262029
11
1.6075328
21
-10.253858
0
LINE
8
layer1
10
1.6075328
20
-10.253858
11
1.6008259
21
-10.2863334
0
LINE
8
layer1
10
1.6008259
20
-10.2863334
11
1.5962892
21
-10.3235609
0
LINE
8
layer1
10
1.5962892
20
-10.3235609
11
1.590667
21
-10.4919613
0
LINE
8
layer1
10
1.590667
20
-10.4919613
11
1.5828485
21
-10.5911976
0
LINE
8
layer1
10
1.5828485
20
-10.5911976
11
1.568448
21
-10.7101898
0
LINE
8
layer1
10
1.568448
20
-10.7101898
11
1.5464156
21
-10.84479
0
LINE
8
layer1
10
1.5464156
20
-10.84479
11
1.5148173
21
-10.9974963
0
LINE
8
layer1
10
1.5148173
20
-10.9974963
11
1.47283
21
-11.1648307
0
LINE
8
layer1
10
1.47283
20
-11.1648307
11
1.4183793
21
-11.3489204
0
LINE
8
layer1
10
1.4183793
20
-11.3489204
11
1.3863138
21
-11.4460665
0
LINE
8
layer1
10
1.3863138
20
-11.4460665
11
1.3213635
21
-11.6251405
0
ARC
8
layer1
10
-5e-7
20
0.0000045
40
11.7
50
274.1035821
51
276.4846541
0
LINE
8
layer1
10
0.8372492
20
-11.6700003
11
0.7405
21
-11.50591
0
LINE
8
layer1
10
0.7405
20
-11.50591
11
0.69113
21
-11.41631
0
LINE
8
layer1
10
0.69113
20
-11.41631
11
0.60378
21
-11.24536
0
LINE
8
layer1
10
0.60378
20
-11.24536
11
0.53176
21
-11.08859
0
LINE
8
layer1
10
0.53176
20
-11.08859
11
0.47264
21
-10.94429
0
LINE
8
layer1
10
0.47264
20
-10.94429
11
0.42625
21
-10.81603
0
LINE
8
layer1
10
0.42625
20
-10.81603
11
0.39023
21
-10.70171
0
LINE
8
layer1
10
0.39023
20
-10.70171
11
0.36431
21
-10.6056
0
LINE
8
layer1
10
0.36431
20
-10.6056
11
0.32784
21
-10.4411
0
LINE
8
layer1
10
0.32784
20
-10.4411
11
0.31654
21
-10.40534
0
LINE
8
layer1
10
0.31654
20
-10.40534
11
0.30398
21
-10.37465
0
LINE
8
layer1
10
0.30398
20
-10.37465
11
0.29037
21
-10.34906
0
LINE
8
layer1
10
0.29037
20
-10.34906
11
0.27593
21
-10.3286
0
LINE
8
layer1
10
0.27593
20
-10.3286
11
0.26086
21
-10.31328
0
LINE
8
layer1
10
0.26086
20
-10.31328
11
0.24537
21
-10.30313
0
LINE
8
layer1
10
0.24537
20
-10.30313
11
0.22967
21
-10.29816
0
LINE
8
layer1
10
0.22967
20
-10.29816
11
0.18892
21
-10.2983
0
LINE
8
layer1
10
0.18892
20
-10.2983
11
0
21
-10.3
0
LINE
8
layer1
10
0
20
-10.3
11
-0.18892
21
-10.2983
0
LINE
8
layer1
10
-0.18892
20
-10.2983
11
-0.22967
21
-10.29816
0
LINE
8
layer1
10
-0.22967
20
-10.29816
11
-0.24537
21
-10.30313
0
LINE
8
layer1
10
-0.24537
20
-10.30313
11
-0.26086
21
-10.31328
0
LINE
8
layer1
10
-0.26086
20
-10.31328
11
-0.27593
21
-10.3286
0
LINE
8
layer1
10
-0.27593
20
-10.3286
11
-0.29037
21
-10.34906
0
LINE
8
layer1
10
-0.29037
20
-10.34906
11
-0.30398
21
-10.37465
0
LINE
8
layer1
10
-0.30398
20
-10.37465
11
-0.31654
21
-10.40534
0
LINE
8
layer1
10
-0.31654
20
-10.40534
11
-0.32784
21
-10.4411
0
LINE
8
layer1
10
-0.32784
20
-10.4411
11
-0.36431
21
-10.6056
0
LINE
8
layer1
10
-0.36431
20
-10.6056
11
-0.39023
21
-10.70171
0
LINE
8
layer1
10
-0.39023
20
-10.70171
11
-0.42625
21
-10.81603
0
LINE
8
layer1
10
-0.42625
20
-10.81603
11
-0.47264
21
-10.94429
0
LINE
8
layer1
10
-0.47264
20
-10.94429
11
-0.53176
21
-11.08859
0
LINE
8
layer1
10
-0.53176
20
-11.08859
11
-0.60378
21
-11.24536
0
LINE
8
layer1
10
-0.60378
20
-11.24536
11
-0.69113
21
-11.41631
0
LINE
8
layer1
10
-0.69113
20
-11.41631
11
-0.7405
21
-11.50591
0
LINE
8
layer1
10
-0.7405
20
-11.50591
11
-0.8372492
21
-11.6700003
0
ARC
8
layer1
10
5e-7
20
0.0000045
40
11.7
50
263.5153459
51
265.8964179
0
LINE
8
layer1
10
-1.3213635
20
-11.6251405
11
-1.3863138
21
-11.4460665
0
LINE
8
layer1
10
-1.3863138
20
-11.4460665
11
-1.4183793
21
-11.3489204
0
LINE
8
layer1
10
-1.4183793
20
-11.3489204
11
-1.47283
21
-11.1648307
0
LINE
8
layer1
10
-1.47283
20
-11.1648307
11
-1.5148173
21
-10.9974963
0
LINE
8
layer1
10
-1.5148173
20
-10.9974963
11
-1.5464156
21
-10.84479
0
LINE
8
layer1
10
-1.5464156
20
-10.84479
11
-1.568448
21
-10.7101898
0
LINE
8
layer1
10
-1.568448
20
-10.7101898
11
-1.5828485
21
-10.5911976
0
LINE
8
layer1
10
-1.5828485
20
-10.5911976
11
-1.590667
21
-10.4919613
0
LINE
8
layer1
10
-1.590667
20
-10.4919613
11
-1.5962892
21
-10.3235609
0
LINE
8
layer1
10
-1.5962892
20
-10.3235609
11
-1.6008259
21
-10.2863334
0
LINE
8
layer1
10
-1.6008259
20
-10.2863334
11
-1.6075328
21
-10.253858
0
LINE
8
layer1
10
-1.6075328
20
-10.253858
11
-1.6162089
21
-10.2262029
0
LINE
8
layer1
10
-1.6162089
20
-10.2262029
11
-1.6266435
21
-10.203438
0
LINE
8
layer1
10
-1.6266435
20
-10.203438
11
-1.6386419
21
-10.1856097
0
LINE
8
layer1
10
-1.6386419
20
-10.1856097
11
-1.6520031
21
-10.1727863
0
LINE
8
layer1
10
-1.6520031
20
-10.1727863
11
-1.6665225
21
-10.165016
0
LINE
8
layer1
10
-1.6665225
20
-10.165016
11
-1.7066044
21
-10.1576658
0
LINE
8
layer1
10
-1.7066044
20
-10.1576658
11
-1.89262
21
-10.1246229
0
LINE
8
layer1
10
-1.89262
20
-10.1246229
11
-2.0780109
21
-10.0882379
0
LINE
8
layer1
10
-2.0780109
20
-10.0882379
11
-2.1180414
21
-10.0806125
0
LINE
8
layer1
10
-2.1180414
20
-10.0806125
11
-2.1343873
21
-10.082613
0
LINE
8
layer1
10
-2.1343873
20
-10.082613
11
-2.1514786
21
-10.0897439
0
LINE
8
layer1
10
-2.1514786
20
-10.0897439
11
-2.169107
21
-10.102034
0
LINE
8
layer1
10
-2.169107
20
-10.102034
11
-2.1870607
21
-10.1194922
0
LINE
8
layer1
10
-2.1870607
20
-10.1194922
11
-2.2051411
21
-10.1421457
0
LINE
8
layer1
10
-2.2051411
20
-10.1421457
11
-2.2231265
21
-10.1700052
0
LINE
8
layer1
10
-2.2231265
20
-10.1700052
11
-2.240805
21
-10.20308
0
LINE
8
layer1
10
-2.240805
20
-10.20308
11
-2.3068808
21
-10.3580777
0
LINE
8
layer1
10
-2.3068808
20
-10.3580777
11
-2.3500196
21
-10.4477885
0
LINE
8
layer1
10
-2.3500196
20
-10.4477885
11
-2.4064326
21
-10.5535433
0
LINE
8
layer1
10
-2.4064326
20
-10.5535433
11
-2.4756004
21
-10.6710953
0
LINE
8
layer1
10
-2.4756004
20
-10.6710953
11
-2.5602288
21
-10.802075
0
LINE
8
layer1
10
-2.5602288
20
-10.802075
11
-2.659829
21
-10.9429421
0
LINE
8
layer1
10
-2.659829
20
-10.9429421
11
-2.7771037
21
-11.0949308
0
LINE
8
layer1
10
-2.7771037
20
-11.0949308
11
-2.842097
21
-11.1739335
0
LINE
8
layer1
10
-2.842097
20
-11.1739335
11
-2.9673504
21
-11.3174522
0
ARC
8
layer1
10
7e-7
20
0.0000045
40
11.7
50
252.927114
51
255.3081856
0
LINE
8
layer1
10
-3.4349787
20
-11.1844005
11
-3.4659184
21
-10.996441
0
LINE
8
layer1
10
-3.4659184
20
-10.996441
11
-3.4795873
21
-10.895057
0
LINE
8
layer1
10
-3.4795873
20
-10.895057
11
-3.4992845
21
-10.7040964
0
LINE
8
layer1
10
-3.4992845
20
-10.7040964
11
-3.5098093
21
-10.5318961
0
LINE
8
layer1
10
-3.5098093
20
-10.5318961
11
-3.5128099
21
-10.3759838
0
LINE
8
layer1
10
-3.5128099
20
-10.3759838
11
-3.5097344
21
-10.2396269
0
LINE
8
layer1
10
-3.5097344
20
-10.2396269
11
-3.5020249
21
-10.1200147
0
LINE
8
layer1
10
-3.5020249
20
-10.1200147
11
-3.4914757
21
-10.0210314
0
LINE
8
layer1
10
-3.4914757
20
-10.0210314
11
-3.4660587
21
-9.8544653
0
LINE
8
layer1
10
-3.4660587
20
-9.8544653
11
-3.4636776
21
-9.817038
0
LINE
8
layer1
10
-3.4636776
20
-9.817038
11
-3.4643029
21
-9.7838833
0
LINE
8
layer1
10
-3.4643029
20
-9.7838833
11
-3.4677497
21
-9.7551048
0
LINE
8
layer1
10
-3.4677497
20
-9.7551048
11
-3.4738236
21
-9.7308101
0
LINE
8
layer1
10
-3.4738236
20
-9.7308101
11
-3.4823417
21
-9.7110807
0
LINE
8
layer1
10
-3.4823417
20
-9.7110807
11
-3.4931191
21
-9.6960205
0
LINE
8
layer1
10
-3.4931191
20
-9.6960205
11
-3.5059636
21
-9.6857146
0
LINE
8
layer1
10
-3.5059636
20
-9.6857146
11
-3.5440124
21
-9.6711245
0
LINE
8
layer1
10
-3.5440124
20
-9.6711245
11
-3.7207892
21
-9.604464
0
LINE
8
layer1
10
-3.7207892
20
-9.604464
11
-3.8963377
21
-9.534633
0
LINE
8
layer1
10
-3.8963377
20
-9.534633
11
-3.9342854
21
-9.5197818
0
LINE
8
layer1
10
-3.9342854
20
-9.5197818
11
-3.9507206
21
-9.5187447
0
LINE
8
layer1
10
-3.9507206
20
-9.5187447
11
-3.9688312
21
-9.5226137
0
LINE
8
layer1
10
-3.9688312
20
-9.5226137
11
-3.9884177
21
-9.5314553
0
LINE
8
layer1
10
-3.9884177
20
-9.5314553
11
-4.0092736
21
-9.5453173
0
LINE
8
layer1
10
-4.0092736
20
-9.5453173
11
-4.0312088
21
-9.5642628
0
LINE
8
layer1
10
-4.0312088
20
-9.5642628
11
-4.0540071
21
-9.5883432
0
LINE
8
layer1
10
-4.0540071
20
-9.5883432
11
-4.0774621
21
-9.6176063
0
LINE
8
layer1
10
-4.0774621
20
-9.6176063
11
-4.1708936
21
-9.7578235
0
LINE
8
layer1
10
-4.1708936
20
-9.7578235
11
-4.2297822
21
-9.83808
0
LINE
8
layer1
10
-4.2297822
20
-9.83808
11
-4.304667
21
-9.9316683
0
LINE
8
layer1
10
-4.304667
20
-9.9316683
11
-4.3942572
21
-10.0345092
0
LINE
8
layer1
10
-4.3942572
20
-10.0345092
11
-4.5015122
21
-10.1477084
0
LINE
8
layer1
10
-4.5015122
20
-10.1477084
11
-4.6253007
21
-10.2678754
0
LINE
8
layer1
10
-4.6253007
20
-10.2678754
11
-4.7685064
21
-10.3957271
0
LINE
8
layer1
10
-4.7685064
20
-10.3957271
11
-4.8469098
21
-10.4614421
0
LINE
8
layer1
10
-4.8469098
20
-10.4614421
11
-4.996402
21
-10.5795019
0
ARC
8
layer1
10
0.0000027
20
0.0000038
40
11.7
50
242.3388721
51
244.7199441
0
LINE
8
layer1
10
-5.4316199
20
-10.3627891
11
-5.4274953
21
-10.1723449
0
LINE
8
layer1
10
-5.4274953
20
-10.1723449
11
-5.4223022
21
-10.0701754
0
LINE
8
layer1
10
-5.4223022
20
-10.0701754
11
-5.4065751
21
-9.878847
0
LINE
8
layer1
10
-5.4065751
20
-9.878847
11
-5.385279
21
-9.7076448
0
LINE
8
layer1
10
-5.385279
20
-9.7076448
11
-5.3595796
21
-9.5538358
0
LINE
8
layer1
10
-5.3595796
20
-9.5538358
11
-5.331501
21
-9.4203658
0
LINE
8
layer1
10
-5.331501
20
-9.4203658
11
-5.3019441
21
-9.3042068
0
LINE
8
layer1
10
-5.3019441
20
-9.3042068
11
-5.2733863
21
-9.2088474
0
LINE
8
layer1
10
-5.2733863
20
-9.2088474
11
-5.2177957
21
-9.0497877
0
LINE
8
layer1
10
-5.2177957
20
-9.0497877
11
-5.2085779
21
-9.0134352
0
LINE
8
layer1
10
-5.2085779
20
-9.0134352
11
-5.2031004
21
-8.9807301
0
LINE
8
layer1
10
-5.2031004
20
-8.9807301
11
-5.2012005
21
-8.9518083
0
LINE
8
layer1
10
-5.2012005
20
-8.9518083
11
-5.2027068
21
-8.9268111
0
LINE
8
layer1
10
-5.2027068
20
-8.9268111
11
-5.2074547
21
-8.9058525
0
LINE
8
layer1
10
-5.2074547
20
-8.9058525
11
-5.2152812
21
-8.8890683
0
LINE
8
layer1
10
-5.2152812
20
-8.8890683
11
-5.2260133
21
-8.8765778
0
LINE
8
layer1
10
-5.2260133
20
-8.8765778
11
-5.2607333
21
-8.8552447
0
LINE
8
layer1
10
-5.2607333
20
-8.8552447
11
-5.4222513
21
-8.7572365
0
LINE
8
layer1
10
-5.4222513
20
-8.7572365
11
-5.5819794
21
-8.6563376
0
LINE
8
layer1
10
-5.5819794
20
-8.6563376
11
-5.616552
21
-8.6347664
0
LINE
8
layer1
10
-5.616552
20
-8.6347664
11
-5.6325168
21
-8.630727
0
LINE
8
layer1
10
-5.6325168
20
-8.630727
11
-5.6510299
21
-8.6312023
0
LINE
8
layer1
10
-5.6510299
20
-8.6312023
11
-5.6719077
21
-8.6362943
0
LINE
8
layer1
10
-5.6719077
20
-8.6362943
11
-5.6949556
21
-8.646088
0
LINE
8
layer1
10
-5.6949556
20
-8.646088
11
-5.7199984
21
-8.6606804
0
LINE
8
layer1
10
-5.7199984
20
-8.6606804
11
-5.7468334
21
-8.6801615
0
LINE
8
layer1
10
-5.7468334
20
-8.6801615
11
-5.775266
21
-8.7046166
0
LINE
8
layer1
10
-5.775266
20
-8.7046166
11
-5.8928716
21
-8.8252784
0
LINE
8
layer1
10
-5.8928716
20
-8.8252784
11
-5.9655046
21
-8.8933476
0
LINE
8
layer1
10
-5.9655046
20
-8.8933476
11
-6.0563111
21
-8.9715823
0
LINE
8
layer1
10
-6.0563111
20
-8.9715823
11
-6.1632729
21
-9.05621
0
LINE
8
layer1
10
-6.1632729
20
-9.05621
11
-6.2895019
21
-9.1477737
0
LINE
8
layer1
10
-6.2895019
20
-9.1477737
11
-6.4332633
21
-9.2431486
0
LINE
8
layer1
10
-6.4332633
20
-9.2431486
11
-6.5975233
21
-9.3425093
0
LINE
8
layer1
10
-6.5975233
20
-9.3425093
11
-6.6866669
21
-9.3926988
0
LINE
8
layer1
10
-6.6866669
20
-9.3926988
11
-6.8553071
21
-9.4812793
0
ARC
8
layer1
10
0.0000031
20
0.0000034
40
11.7
50
231.7506385
51
234.1317103
0
LINE
8
layer1
10
-7.2432937
20
-9.1882854
11
-7.2042453
21
-9.0018417
0
LINE
8
layer1
10
-7.2042453
20
-9.0018417
11
-7.1803671
21
-8.9023662
0
LINE
8
layer1
10
-7.1803671
20
-8.9023662
11
-7.1297512
21
-8.7171853
0
LINE
8
layer1
10
-7.1297512
20
-8.7171853
11
-7.0773594
21
-8.5528113
0
LINE
8
layer1
10
-7.0773594
20
-8.5528113
11
-7.0238353
21
-8.4063434
0
LINE
8
layer1
10
-7.0238353
20
-8.4063434
11
-6.9717097
21
-8.2803054
0
LINE
8
layer1
10
-6.9717097
20
-8.2803054
11
-6.921312
21
-8.1715554
0
LINE
8
layer1
10
-6.921312
20
-8.1715554
11
-6.8757182
21
-8.083067
0
LINE
8
layer1
10
-6.8757182
20
-8.083067
11
-6.7918469
21
-7.9369304
0
LINE
8
layer1
10
-6.7918469
20
-7.9369304
11
-6.7761063
21
-7.9028907
0
LINE
8
layer1
10
-6.7761063
20
-7.9028907
11
-6.7647126
21
-7.8717489
0
LINE
8
layer1
10
-6.7647126
20
-7.8717489
11
-6.7575306
21
-7.8436686
0
LINE
8
layer1
10
-6.7575306
20
-7.8436686
11
-6.7544181
21
-7.8188203
0
LINE
8
layer1
10
-6.7544181
20
-7.8188203
11
-6.7552339
21
-7.7973461
0
LINE
8
layer1
10
-6.7552339
20
-7.7973461
11
-6.7598432
21
-7.7794096
0
LINE
8
layer1
10
-6.7598432
20
-7.7794096
11
-6.7680974
21
-7.7651597
0
LINE
8
layer1
10
-6.7680974
20
-7.7651597
11
-6.7983063
21
-7.7378101
0
LINE
8
layer1
10
-6.7983063
20
-7.7378101
11
-6.9390651
21
-7.6117918
0
LINE
8
layer1
10
-6.9390651
20
-7.6117918
11
-7.0775334
21
-7.483261
0
LINE
8
layer1
10
-7.0775334
20
-7.483261
11
-7.1075537
21
-7.4557044
0
LINE
8
layer1
10
-7.1075537
20
-7.4557044
11
-7.1225044
21
-7.4488002
0
LINE
8
layer1
10
-7.1225044
20
-7.4488002
11
-7.1407897
21
-7.4458656
0
LINE
8
layer1
10
-7.1407897
20
-7.4458656
11
-7.1622476
21
-7.4470347
0
LINE
8
layer1
10
-7.1622476
20
-7.4470347
11
-7.1867027
21
-7.4524266
0
LINE
8
layer1
10
-7.1867027
20
-7.4524266
11
-7.2140004
21
-7.4621689
0
LINE
8
layer1
10
-7.2140004
20
-7.4621689
11
-7.2439581
21
-7.4763874
0
LINE
8
layer1
10
-7.2439581
20
-7.4763874
11
-7.2764003
21
-7.4952016
0
LINE
8
layer1
10
-7.2764003
20
-7.4952016
11
-7.4141749
21
-7.5921989
0
LINE
8
layer1
10
-7.4141749
20
-7.5921989
11
-7.4980789
21
-7.6457629
0
LINE
8
layer1
10
-7.4980789
20
-7.6457629
11
-7.6017148
21
-7.7059799
0
LINE
8
layer1
10
-7.6017148
20
-7.7059799
11
-7.7224057
21
-7.7695124
0
LINE
8
layer1
10
-7.7224057
20
-7.7695124
11
-7.8633102
21
-7.8363225
0
LINE
8
layer1
10
-7.8633102
20
-7.8363225
11
-8.0221488
21
-7.9036574
0
LINE
8
layer1
10
-8.0221488
20
-7.9036574
11
-8.2018695
21
-7.9711436
0
LINE
8
layer1
10
-8.2018695
20
-7.9711436
11
-8.2987175
21
-8.0040985
0
LINE
8
layer1
10
-8.2987175
20
-8.0040985
11
-8.480763
21
-8.0601831
0
ARC
8
layer1
10
0.000004
20
0.0000025
40
11.7
50
221.1624009
51
223.5434728
0
LINE
8
layer1
10
-8.8083059
20
-7.7008857
11
-8.7356634
21
-7.5247916
0
LINE
8
layer1
10
-8.7356634
20
-7.5247916
11
-8.6939132
21
-7.4313975
0
LINE
8
layer1
10
-8.6939132
20
-7.4313975
11
-8.6101323
21
-7.2586703
0
LINE
8
layer1
10
-8.6101323
20
-7.2586703
11
-8.5284289
21
-7.106722
0
LINE
8
layer1
10
-8.5284289
20
-7.106722
11
-8.4489027
21
-6.9725831
0
LINE
8
layer1
10
-8.4489027
20
-6.9725831
11
-8.3745053
21
-6.8582691
0
LINE
8
layer1
10
-8.3745053
20
-6.8582691
11
-8.3049828
21
-6.7606314
0
LINE
8
layer1
10
-8.3049828
20
-6.7606314
11
-8.2439057
21
-6.6820276
0
LINE
8
layer1
10
-8.2439057
20
-6.6820276
11
-8.1346099
21
-6.5537905
0
LINE
8
layer1
10
-8.1346099
20
-6.5537905
11
-8.1128826
21
-6.5232227
0
LINE
8
layer1
10
-8.1128826
20
-6.5232227
11
-8.0959606
21
-6.4947047
0
LINE
8
layer1
10
-8.0959606
20
-6.4947047
11
-8.0837411
21
-6.4684223
0
LINE
8
layer1
10
-8.0837411
20
-6.4684223
11
-8.0761158
21
-6.444569
0
LINE
8
layer1
10
-8.0761158
20
-6.444569
11
-8.0729718
21
-6.4233105
0
LINE
8
layer1
10
-8.0729718
20
-6.4233105
11
-8.0742068
21
-6.4048325
0
LINE
8
layer1
10
-8.0742068
20
-6.4048325
11
-8.079702
21
-6.3893085
0
LINE
8
layer1
10
-8.079702
20
-6.3893085
11
-8.1043711
21
-6.3568737
0
LINE
8
layer1
10
-8.1043711
20
-6.3568737
11
-8.2195774
21
-6.2071368
0
LINE
8
layer1
10
-8.2195774
20
-6.2071368
11
-8.3320705
21
-6.0553509
0
LINE
8
layer1
10
-8.3320705
20
-6.0553509
11
-8.3565162
21
-6.0227473
0
LINE
8
layer1
10
-8.3565162
20
-6.0227473
11
-8.3699437
21
-6.0132135
0
LINE
8
layer1
10
-8.3699437
20
-6.0132135
11
-8.3873784
21
-6.006969
0
LINE
8
layer1
10
-8.3873784
20
-6.006969
11
-8.4086857
21
-6.0041752
0
LINE
8
layer1
10
-8.4086857
20
-6.0041752
11
-8.4337152
21
-6.0049817
0
LINE
8
layer1
10
-8.4337152
20
-6.0049817
11
-8.4623383
21
-6.0095422
0
LINE
8
layer1
10
-8.4623383
20
-6.0095422
11
-8.4943985
21
-6.0180139
0
LINE
8
layer1
10
-8.4943985
20
-6.0180139
11
-8.5297454
21
-6.0305465
0
LINE
8
layer1
10
-8.5297454
20
-6.0305465
11
-8.6829973
21
-6.1005762
0
LINE
8
layer1
10
-8.6829973
20
-6.1005762
11
-8.7753151
21
-6.1378109
0
LINE
8
layer1
10
-8.7753151
20
-6.1378109
11
-8.8882513
21
-6.1779595
0
LINE
8
layer1
10
-8.8882513
20
-6.1779595
11
-9.0185612
21
-6.2182334
0
LINE
8
layer1
10
-9.0185612
20
-6.2182334
11
-9.1693428
21
-6.2580148
0
LINE
8
layer1
10
-9.1693428
20
-6.2580148
11
-9.3378497
21
-6.2950166
0
LINE
8
layer1
10
-9.3378497
20
-6.2950166
11
-9.5269109
21
-6.3283302
0
LINE
8
layer1
10
-9.5269109
20
-6.3283302
11
-9.6281653
21
-6.3429281
0
LINE
8
layer1
10
-9.6281653
20
-6.3429281
11
-9.8174166
21
-6.3646071
0
ARC
8
layer1
10
0.0000044
20
0.0000016
40
11.7
50
210.5741655
51
212.9552373
0
LINE
8
layer1
10
-10.0733618
20
-5.9512415
11
-9.969599
21
-5.7914938
0
LINE
8
layer1
10
-9.969599
20
-5.7914938
11
-9.9113985
21
-5.7073615
0
LINE
8
layer1
10
-9.9113985
20
-5.7073615
11
-9.7973056
21
-5.55297
0
LINE
8
layer1
10
-9.7973056
20
-5.55297
11
-9.6890729
21
-5.4186219
0
LINE
8
layer1
10
-9.6890729
20
-5.4186219
11
-9.5862529
21
-5.3013798
0
LINE
8
layer1
10
-9.5862529
20
-5.3013798
11
-9.492117
21
-5.2026828
0
LINE
8
layer1
10
-9.492117
20
-5.2026828
11
-9.4058375
21
-5.1194822
0
LINE
8
layer1
10
-9.4058375
20
-5.1194822
11
-9.3313569
21
-5.0534396
0
LINE
8
layer1
10
-9.3313569
20
-5.0534396
11
-9.2003586
21
-4.9474691
0
LINE
8
layer1
10
-9.2003586
20
-4.9474691
11
-9.1733844
21
-4.9214141
0
LINE
8
layer1
10
-9.1733844
20
-4.9214141
11
-9.1515103
21
-4.8964912
0
LINE
8
layer1
10
-9.1515103
20
-4.8964912
11
-9.1346696
21
-4.8729016
0
LINE
8
layer1
10
-9.1346696
20
-4.8729016
11
-9.122791
21
-4.8508556
0
LINE
8
layer1
10
-9.122791
20
-4.8508556
11
-9.1157944
21
-4.8305368
0
LINE
8
layer1
10
-9.1157944
20
-4.8305368
11
-9.1136129
21
-4.8121464
0
LINE
8
layer1
10
-9.1136129
20
-4.8121464
11
-9.1161621
21
-4.7958771
0
LINE
8
layer1
10
-9.1161621
20
-4.7958771
11
-9.1344512
21
-4.7594616
0
LINE
8
layer1
10
-9.1344512
20
-4.7594616
11
-9.2201819
21
-4.5911051
0
LINE
8
layer1
10
-9.2201819
20
-4.5911051
11
-9.302869
21
-4.4212331
0
LINE
8
layer1
10
-9.302869
20
-4.4212331
11
-9.3209075
21
-4.3846928
0
LINE
8
layer1
10
-9.3209075
20
-4.3846928
11
-9.3323546
21
-4.372854
0
LINE
8
layer1
10
-9.3323546
20
-4.372854
11
-9.348345
21
-4.3635122
0
LINE
8
layer1
10
-9.348345
20
-4.3635122
11
-9.3687762
21
-4.3568508
0
LINE
8
layer1
10
-9.3687762
20
-4.3568508
11
-9.3935277
21
-4.3530444
0
LINE
8
layer1
10
-9.3935277
20
-4.3530444
11
-9.4225014
21
-4.3522677
0
LINE
8
layer1
10
-9.4225014
20
-4.3522677
11
-9.4555724
21
-4.3547042
0
LINE
8
layer1
10
-9.4555724
20
-4.3547042
11
-9.4926203
21
-4.3605284
0
LINE
8
layer1
10
-9.4926203
20
-4.3605284
11
-9.6561307
21
-4.4012058
0
LINE
8
layer1
10
-9.6561307
20
-4.4012058
11
-9.7537184
21
-4.420843
0
LINE
8
layer1
10
-9.7537184
20
-4.420843
11
-9.872109
21
-4.4395561
0
LINE
8
layer1
10
-9.872109
20
-4.4395561
11
-10.0076004
21
-4.4551999
0
LINE
8
layer1
10
-10.0076004
20
-4.4551999
11
-10.1631245
21
-4.4665978
0
LINE
8
layer1
10
-10.1631245
20
-4.4665978
11
-10.3355614
21
-4.4720066
0
LINE
8
layer1
10
-10.3355614
20
-4.4720066
11
-10.5275248
21
-4.470013
0
LINE
8
layer1
10
-10.5275248
20
-4.470013
11
-10.6297375
21
-4.465757
0
LINE
8
layer1
10
-10.6297375
20
-4.465757
11
-10.81975
21
-4.452292
0
ARC
8
layer1
10
0.0000037
20
0.0000029
40
11.7
50
199.9859415
51
202.3670132
0
LINE
8
layer1
10
-10.9953814
20
-3.9989349
11
-10.8640318
21
-3.8609736
0
LINE
8
layer1
10
-10.8640318
20
-3.8609736
11
-10.791363
21
-3.7889681
0
LINE
8
layer1
10
-10.791363
20
-3.7889681
11
-10.6508434
21
-3.6581699
0
LINE
8
layer1
10
-10.6508434
20
-3.6581699
11
-10.5197672
21
-3.5459971
0
LINE
8
layer1
10
-10.5197672
20
-3.5459971
11
-10.3971547
21
-3.4496444
0
LINE
8
layer1
10
-10.3971547
20
-3.4496444
11
-10.2864862
21
-3.3699253
0
LINE
8
layer1
10
-10.2864862
20
-3.3699253
11
-10.1863876
21
-3.3039952
0
LINE
8
layer1
10
-10.1863876
20
-3.3039952
11
-10.1010399
21
-3.2527629
0
LINE
8
layer1
10
-10.1010399
20
-3.2527629
11
-9.9528
21
-3.1726676
0
LINE
8
layer1
10
-9.9528
20
-3.1726676
11
-9.9214976
21
-3.1520127
0
LINE
8
layer1
10
-9.9214976
20
-3.1520127
11
-9.8954163
21
-3.1315335
0
LINE
8
layer1
10
-9.8954163
20
-3.1315335
11
-9.8745278
21
-3.11144
0
LINE
8
layer1
10
-9.8745278
20
-3.11144
11
-9.8588005
21
-3.0919521
0
LINE
8
layer1
10
-9.8588005
20
-3.0919521
11
-9.8481894
21
-3.0732649
0
LINE
8
layer1
10
-9.8481894
20
-3.0732649
11
-9.842666
21
-3.0555885
0
LINE
8
layer1
10
-9.842666
20
-3.0555885
11
-9.8421822
21
-3.0391278
0
LINE
8
layer1
10
-9.8421822
20
-3.0391278
11
-9.8534686
21
-2.9999717
0
LINE
8
layer1
10
-9.8534686
20
-2.9999717
11
-9.9068041
21
-2.8187288
0
LINE
8
layer1
10
-9.9068041
20
-2.8187288
11
-9.9568694
21
-2.6365555
0
LINE
8
layer1
10
-9.9568694
20
-2.6365555
11
-9.9678865
21
-2.5973228
0
LINE
8
layer1
10
-9.9678865
20
-2.5973228
11
-9.9769633
21
-2.5835822
0
LINE
8
layer1
10
-9.9769633
20
-2.5835822
11
-9.9909649
21
-2.5714612
0
LINE
8
layer1
10
-9.9909649
20
-2.5714612
11
-10.0098242
21
-2.561159
0
LINE
8
layer1
10
-10.0098242
20
-2.561159
11
-10.0334548
21
-2.5528694
0
LINE
8
layer1
10
-10.0334548
20
-2.5528694
11
-10.0617925
21
-2.546782
0
LINE
8
layer1
10
-10.0617925
20
-2.546782
11
-10.0947481
21
-2.5431002
0
LINE
8
layer1
10
-10.0947481
20
-2.5431002
11
-10.1322354
21
-2.5420177
0
LINE
8
layer1
10
-10.1322354
20
-2.5420177
11
-10.3004362
21
-2.5519575
0
LINE
8
layer1
10
-10.3004362
20
-2.5519575
11
-10.3999706
21
-2.5533287
0
LINE
8
layer1
10
-10.3999706
20
-2.5533287
11
-10.5197839
21
-2.5499689
0
LINE
8
layer1
10
-10.5197839
20
-2.5499689
11
-10.6558428
21
-2.5404499
0
LINE
8
layer1
10
-10.6558428
20
-2.5404499
11
-10.8108132
21
-2.5230763
0
LINE
8
layer1
10
-10.8108132
20
-2.5230763
11
-10.9813079
21
-2.4967078
0
LINE
8
layer1
10
-10.9813079
20
-2.4967078
11
-11.1696364
21
-2.459475
0
LINE
8
layer1
10
-11.1696364
20
-2.459475
11
-11.2693267
21
-2.4365098
0
LINE
8
layer1
10
-11.2693267
20
-2.4365098
11
-11.4536297
21
-2.3883594
0
ARC
8
layer1
10
0.0000043
20
0.0000018
40
11.7
50
189.397704
51
191.7787759
0
LINE
8
layer1
10
-11.5429665
20
-1.9104494
11
-11.3885031
21
-1.7989726
0
LINE
8
layer1
10
-11.3885031
20
-1.7989726
11
-11.3038406
21
-1.741546
0
LINE
8
layer1
10
-11.3038406
20
-1.741546
11
-11.1416795
21
-1.6387953
0
LINE
8
layer1
10
-11.1416795
20
-1.6387953
11
-10.9922234
21
-1.5526176
0
LINE
8
layer1
10
-10.9922234
20
-1.5526176
11
-10.8539939
21
-1.4804355
0
LINE
8
layer1
10
-10.8539939
20
-1.4804355
11
-10.7305613
21
-1.422409
0
LINE
8
layer1
10
-10.7305613
20
-1.422409
11
-10.6200525
21
-1.3759946
0
LINE
8
layer1
10
-10.6200525
20
-1.3759946
11
-10.5267441
21
-1.3413172
0
LINE
8
layer1
10
-10.5267441
20
-1.3413172
11
-10.3663108
21
-1.2898247
0
LINE
8
layer1
10
-10.3663108
20
-1.2898247
11
-10.331746
21
-1.2752733
0
LINE
8
layer1
10
-10.331746
20
-1.2752733
11
-10.3023458
21
-1.2599352
0
LINE
8
layer1
10
-10.3023458
20
-1.2599352
11
-10.2781208
21
-1.2440221
0
LINE
8
layer1
10
-10.2781208
20
-1.2440221
11
-10.2590804
21
-1.2277559
0
LINE
8
layer1
10
-10.2590804
20
-1.2277559
11
-10.2452162
21
-1.2113366
0
LINE
8
layer1
10
-10.2452162
20
-1.2113366
11
-10.2365388
21
-1.1949762
0
LINE
8
layer1
10
-10.2365388
20
-1.1949762
11
-10.2330386
21
-1.1788846
0
LINE
8
layer1
10
-10.2330386
20
-1.1788846
11
-10.2369379
21
-1.1383213
0
LINE
8
layer1
10
-10.2369379
20
-1.1383213
11
-10.256062
21
-0.9503641
0
LINE
8
layer1
10
-10.256062
20
-0.9503641
11
-10.2718006
21
-0.7620931
0
LINE
8
layer1
10
-10.2718006
20
-0.7620931
11
-10.2754211
21
-0.7215041
0
LINE
8
layer1
10
-10.2754211
20
-0.7215041
11
-10.2818186
21
-0.7063296
0
LINE
8
layer1
10
-10.2818186
20
-0.7063296
11
-10.2933545
21
-0.6918422
0
LINE
8
layer1
10
-10.2933545
20
-0.6918422
11
-10.3099996
21
-0.67825
0
LINE
8
layer1
10
-10.3099996
20
-0.67825
11
-10.3317047
21
-0.6657595
0
LINE
8
layer1
10
-10.3317047
20
-0.6657595
11
-10.3584413
21
-0.6545687
0
LINE
8
layer1
10
-10.3584413
20
-0.6545687
11
-10.3901593
21
-0.644894
0
LINE
8
layer1
10
-10.3901593
20
-0.644894
11
-10.4268094
21
-0.6369417
0
LINE
8
layer1
10
-10.4268094
20
-0.6369417
11
-10.5939727
21
-0.6158054
0
LINE
8
layer1
10
-10.5939727
20
-0.6158054
11
-10.6920643
21
-0.5988639
0
LINE
8
layer1
10
-10.6920643
20
-0.5988639
11
-10.8092201
21
-0.5735457
0
LINE
8
layer1
10
-10.8092201
20
-0.5735457
11
-10.9412133
21
-0.5391879
0
LINE
8
layer1
10
-10.9412133
20
-0.5391879
11
-11.0903527
21
-0.4936344
0
LINE
8
layer1
10
-11.0903527
20
-0.4936344
11
-11.2530991
21
-0.4363865
0
LINE
8
layer1
10
-11.2530991
20
-0.4363865
11
-11.4313795
21
-0.3651824
0
LINE
8
layer1
10
-11.4313795
20
-0.3651824
11
-11.5251525
21
-0.3242903
0
LINE
8
layer1
10
-11.5251525
20
-0.3242903
11
-11.6974697
21
-0.2430941
0
ARC
8
layer1
10
0.0000046
20
1e-7
40
11.7
50
178.8094642
51
181.1905362
0
LINE
8
layer1
10
-11.6974697
20
0.2430941
11
-11.5251525
21
0.3242903
0
LINE
8
layer1
10
-11.5251525
20
0.3242903
11
-11.4313795
21
0.3651824
0
LINE
8
layer1
10
-11.4313795
20
0.3651824
11
-11.2530991
21
0.4363865
0
LINE
8
layer1
10
-11.2530991
20
0.4363865
11
-11.0903527
21
0.4936344
0
LINE
8
layer1
10
-11.0903527
20
0.4936344
11
-10.9412133
21
0.5391879
0
LINE
8
layer1
10
-10.9412133
20
0.5391879
11
-10.8092201
21
0.5735457
0
LINE
8
layer1
10
-10.8092201
20
0.5735457
11
-10.6920643
21
0.5988639
0
LINE
8
layer1
10
-10.6920643
20
0.5988639
11
-10.5939727
21
0.6158054
0
LINE
8
layer1
10
-10.5939727
20
0.6158054
11
-10.4268094
21
0.6369417
0
LINE
8
layer1
10
-10.4268094
20
0.6369417
11
-10.3901593
21
0.644894
0
LINE
8
layer1
10
-10.3901593
20
0.644894
11
-10.3584413
21
0.6545687
0
LINE
8
layer1
10
-10.3584413
20
0.6545687
11
-10.3317047
21
0.6657595
0
LINE
8
layer1
10
-10.3317047
20
0.6657595
11
-10.3099996
21
0.67825
0
LINE
8
layer1
10
-10.3099996
20
0.67825
11
-10.2933545
21
0.6918422
0
LINE
8
layer1
10
-10.2933545
20
0.6918422
11
-10.2818186
21
0.7063296
0
LINE
8
layer1
10
-10.2818186
20
0.7063296
11
-10.2754211
21
0.7215041
0
LINE
8
layer1
10
-10.2754211
20
0.7215041
11
-10.2718006
21
0.7620931
0
LINE
8
layer1
10
-10.2718006
20
0.7620931
11
-10.256062
21
0.9503641
0
LINE
8
layer1
10
-10.256062
20
0.9503641
11
-10.2369379
21
1.1383213
0
LINE
8
layer1
10
-10.2369379
20
1.1383213
11
-10.2330386
21
1.1788846
0
LINE
8
layer1
10
-10.2330386
20
1.1788846
11
-10.2365388
21
1.1949762
0
LINE
8
layer1
10
-10.2365388
20
1.1949762
11
-10.2452162
21
1.2113366
0
LINE
8
layer1
10
-10.2452162
20
1.2113366
11
-10.2590804
21
1.2277559
0
LINE
8
layer1
10
-10.2590804
20
1.2277559
11
-10.2781208
21
1.2440221
0
LINE
8
layer1
10
-10.2781208
20
1.2440221
11
-10.3023458
21
1.2599352
0
LINE
8
layer1
10
-10.3023458
20
1.2599352
11
-10.331746
21
1.2752733
0
LINE
8
layer1
10
-10.331746
20
1.2752733
11
-10.3663108
21
1.2898247
0
LINE
8
layer1
10
-10.3663108
20
1.2898247
11
-10.5267441
21
1.3413172
0
LINE
8
layer1
10
-10.5267441
20
1.3413172
11
-10.6200525
21
1.3759946
0
LINE
8
layer1
10
-10.6200525
20
1.3759946
11
-10.7305613
21
1.422409
0
LINE
8
layer1
10
-10.7305613
20
1.422409
11
-10.8539939
21
1.4804355
0
LINE
8
layer1
10
-10.8539939
20
1.4804355
11
-10.9922234
21
1.5526176
0
LINE
8
layer1
10
-10.9922234
20
1.5526176
11
-11.1416795
21
1.6387953
0
LINE
8
layer1
10
-11.1416795
20
1.6387953
11
-11.3038406
21
1.741546
0
LINE
8
layer1
10
-11.3038406
20
1.741546
11
-11.3885031
21
1.7989726
0
LINE
8
layer1
10
-11.3885031
20
1.7989726
11
-11.5429665
21
1.9104494
0
ARC
8
layer1
10
0.0000044
20
-0.0000017
40
11.7
50
168.2212246
51
170.6022965
0
LINE
8
layer1
10
-11.4536297
20
2.3883594
11
-11.2693267
21
2.4365098
0
LINE
8
layer1
10
-11.2693267
20
2.4365098
11
-11.1696364
21
2.459475
0
LINE
8
layer1
10
-11.1696364
20
2.459475
11
-10.9813079
21
2.4967078
0
LINE
8
layer1
10
-10.9813079
20
2.4967078
11
-10.8108132
21
2.5230763
0
LINE
8
layer1
10
-10.8108132
20
2.5230763
11
-10.6558428
21
2.5404499
0
LINE
8
layer1
10
-10.6558428
20
2.5404499
11
-10.5197839
21
2.5499689
0
LINE
8
layer1
10
-10.5197839
20
2.5499689
11
-10.3999706
21
2.5533287
0
LINE
8
layer1
10
-10.3999706
20
2.5533287
11
-10.3004362
21
2.5519575
0
LINE
8
layer1
10
-10.3004362
20
2.5519575
11
-10.1322354
21
2.5420177
0
LINE
8
layer1
10
-10.1322354
20
2.5420177
11
-10.0947481
21
2.5431002
0
LINE
8
layer1
10
-10.0947481
20
2.5431002
11
-10.0617925
21
2.546782
0
LINE
8
layer1
10
-10.0617925
20
2.546782
11
-10.0334548
21
2.5528694
0
LINE
8
layer1
10
-10.0334548
20
2.5528694
11
-10.0098242
21
2.561159
0
LINE
8
layer1
10
-10.0098242
20
2.561159
11
-9.9909649
21
2.5714612
0
LINE
8
layer1
10
-9.9909649
20
2.5714612
11
-9.9769633
21
2.5835822
0
LINE
8
layer1
10
-9.9769633
20
2.5835822
11
-9.9678865
21
2.5973228
0
LINE
8
layer1
10
-9.9678865
20
2.5973228
11
-9.9568694
21
2.6365555
0
LINE
8
layer1
10
-9.9568694
20
2.6365555
11
-9.9068041
21
2.8187288
0
LINE
8
layer1
10
-9.9068041
20
2.8187288
11
-9.8534686
21
2.9999717
0
LINE
8
layer1
10
-9.8534686
20
2.9999717
11
-9.8421822
21
3.0391278
0
LINE
8
layer1
10
-9.8421822
20
3.0391278
11
-9.842666
21
3.0555885
0
LINE
8
layer1
10
-9.842666
20
3.0555885
11
-9.8481894
21
3.0732649
0
LINE
8
layer1
10
-9.8481894
20
3.0732649
11
-9.8588005
21
3.0919521
0
LINE
8
layer1
10
-9.8588005
20
3.0919521
11
-9.8745278
21
3.11144
0
LINE
8
layer1
10
-9.8745278
20
3.11144
11
-9.8954163
21
3.1315335
0
LINE
8
layer1
10
-9.8954163
20
3.1315335
11
-9.9214976
21
3.1520127
0
LINE
8
layer1
10
-9.9214976
20
3.1520127
11
-9.9528
21
3.1726676
0
LINE
8
layer1
10
-9.9528
20
3.1726676
11
-10.1010399
21
3.2527629
0
LINE
8
layer1
10
-10.1010399
20
3.2527629
11
-10.1863876
21
3.3039952
0
LINE
8
layer1
10
-10.1863876
20
3.3039952
11
-10.2864862
21
3.3699253
0
LINE
8
layer1
10
-10.2864862
20
3.3699253
11
-10.3971547
21
3.4496444
0
LINE
8
layer1
10
-10.3971547
20
3.4496444
11
-10.5197672
21
3.5459971
0
LINE
8
layer1
10
-10.5197672
20
3.5459971
11
-10.6508434
21
3.6581699
0
LINE
8
layer1
10
-10.6508434
20
3.6581699
11
-10.791363
21
3.7889681
0
LINE
8
layer1
10
-10.791363
20
3.7889681
11
-10.8640318
21
3.8609736
0
LINE
8
layer1
10
-10.8640318
20
3.8609736
11
-10.9953814
21
3.9989349
0
ARC
8
layer1
10
0.0000038
20
-0.000003
40
11.7
50
157.6329868
51
160.0140585
0
LINE
8
layer1
10
-10.81975
20
4.452292
11
-10.6297375
21
4.465757
0
LINE
8
layer1
10
-10.6297375
20
4.465757
11
-10.5275248
21
4.470013
0
LINE
8
layer1
10
-10.5275248
20
4.470013
11
-10.3355614
21
4.4720066
0
LINE
8
layer1
10
-10.3355614
20
4.4720066
11
-10.1631245
21
4.4665978
0
LINE
8
layer1
10
-10.1631245
20
4.4665978
11
-10.0076004
21
4.4551999
0
LINE
8
layer1
10
-10.0076004
20
4.4551999
11
-9.872109
21
4.4395561
0
LINE
8
layer1
10
-9.872109
20
4.4395561
11
-9.7537184
21
4.420843
0
LINE
8
layer1
10
-9.7537184
20
4.420843
11
-9.6561307
21
4.4012058
0
LINE
8
layer1
10
-9.6561307
20
4.4012058
11
-9.4926203
21
4.3605284
0
LINE
8
layer1
10
-9.4926203
20
4.3605284
11
-9.4555724
21
4.3547042
0
LINE
8
layer1
10
-9.4555724
20
4.3547042
11
-9.4225014
21
4.3522677
0
LINE
8
layer1
10
-9.4225014
20
4.3522677
11
-9.3935277
21
4.3530444
0
LINE
8
layer1
10
-9.3935277
20
4.3530444
11
-9.3687762
21
4.3568508
0
LINE
8
layer1
10
-9.3687762
20
4.3568508
11
-9.348345
21
4.3635122
0
LINE
8
layer1
10
-9.348345
20
4.3635122
11
-9.3323546
21
4.372854
0
LINE
8
layer1
10
-9.3323546
20
4.372854
11
-9.3209075
21
4.3846928
0
LINE
8
layer1
10
-9.3209075
20
4.3846928
11
-9.302869
21
4.4212331
0
LINE
8
layer1
10
-9.302869
20
4.4212331
11
-9.2201819
21
4.5911051
0
LINE
8
layer1
10
-9.2201819
20
4.5911051
11
-9.1344512
21
4.7594616
0
LINE
8
layer1
10
-9.1344512
20
4.7594616
11
-9.1161621
21
4.7958771
0
LINE
8
layer1
10
-9.1161621
20
4.7958771
11
-9.1136129
21
4.8121464
0
LINE
8
layer1
10
-9.1136129
20
4.8121464
11
-9.1157944
21
4.8305368
0
LINE
8
layer1
10
-9.1157944
20
4.8305368
11
-9.122791
21
4.8508556
0
LINE
8
layer1
10
-9.122791
20
4.8508556
11
-9.1346696
21
4.8729016
0
LINE
8
layer1
10
-9.1346696
20
4.8729016
11
-9.1515103
21
4.8964912
0
LINE
8
layer1
10
-9.1515103
20
4.8964912
11
-9.1733844
21
4.9214141
0
LINE
8
layer1
10
-9.1733844
20
4.9214141
11
-9.2003586
21
4.9474691
0
LINE
8
layer1
10
-9.2003586
20
4.9474691
11
-9.3313569
21
5.0534396
0
LINE
8
layer1
10
-9.3313569
20
5.0534396
11
-9.4058375
21
5.1194822
0
LINE
8
layer1
10
-9.4058375
20
5.1194822
11
-9.492117
21
5.2026828
0
LINE
8
layer1
10
-9.492117
20
5.2026828
11
-9.5862529
21
5.3013798
0
LINE
8
layer1
10
-9.5862529
20
5.3013798
11
-9.6890729
21
5.4186219
0
LINE
8
layer1
10
-9.6890729
20
5.4186219
11
-9.7973056
21
5.55297
0
LINE
8
layer1
10
-9.7973056
20
5.55297
11
-9.9113985
21
5.7073615
0
LINE
8
layer1
10
-9.9113985
20
5.7073615
11
-9.969599
21
5.7914938
0
LINE
8
layer1
10
-9.969599
20
5.7914938
11
-10.0733618
21
5.9512415
0
ARC
8
layer1
10
0.0000043
20
-0.0000017
40
11.7
50
147.0447623
51
149.4258341
0
LINE
8
layer1
10
-9.8174166
20
6.3646071
11
-9.6281653
21
6.3429281
0
LINE
8
layer1
10
-9.6281653
20
6.3429281
11
-9.5269109
21
6.3283302
0
LINE
8
layer1
10
-9.5269109
20
6.3283302
11
-9.3378497
21
6.2950166
0
LINE
8
layer1
10
-9.3378497
20
6.2950166
11
-9.1693428
21
6.2580148
0
LINE
8
layer1
10
-9.1693428
20
6.2580148
11
-9.0185612
21
6.2182334
0
LINE
8
layer1
10
-9.0185612
20
6.2182334
11
-8.8882513
21
6.1779595
0
LINE
8
layer1
10
-8.8882513
20
6.1779595
11
-8.7753151
21
6.1378109
0
LINE
8
layer1
10
-8.7753151
20
6.1378109
11
-8.6829973
21
6.1005762
0
LINE
8
layer1
10
-8.6829973
20
6.1005762
11
-8.5297454
21
6.0305465
0
LINE
8
layer1
10
-8.5297454
20
6.0305465
11
-8.4943985
21
6.0180139
0
LINE
8
layer1
10
-8.4943985
20
6.0180139
11
-8.4623383
21
6.0095422
0
LINE
8
layer1
10
-8.4623383
20
6.0095422
11
-8.4337152
21
6.0049817
0
LINE
8
layer1
10
-8.4337152
20
6.0049817
11
-8.4086857
21
6.0041752
0
LINE
8
layer1
10
-8.4086857
20
6.0041752
11
-8.3873784
21
6.006969
0
LINE
8
layer1
10
-8.3873784
20
6.006969
11
-8.3699437
21
6.0132135
0
LINE
8
layer1
10
-8.3699437
20
6.0132135
11
-8.3565162
21
6.0227473
0
LINE
8
layer1
10
-8.3565162
20
6.0227473
11
-8.3320705
21
6.0553509
0
LINE
8
layer1
10
-8.3320705
20
6.0553509
11
-8.2195774
21
6.2071368
0
LINE
8
layer1
10
-8.2195774
20
6.2071368
11
-8.1043711
21
6.3568737
0
LINE
8
layer1
10
-8.1043711
20
6.3568737
11
-8.079702
21
6.3893085
0
LINE
8
layer1
10
-8.079702
20
6.3893085
11
-8.0742068
21
6.4048325
0
LINE
8
layer1
10
-8.0742068
20
6.4048325
11
-8.0729718
21
6.4233105
0
LINE
8
layer1
10
-8.0729718
20
6.4233105
11
-8.0761158
21
6.444569
0
LINE
8
layer1
10
-8.0761158
20
6.444569
11
-8.0837411
21
6.4684223
0
LINE
8
layer1
10
-8.0837411
20
6.4684223
11
-8.0959606
21
6.4947047
0
LINE
8
layer1
10
-8.0959606
20
6.4947047
11
-8.1128826
21
6.5232227
0
LINE
8
layer1
10
-8.1128826
20
6.5232227
11
-8.1346099
21
6.5537905
0
LINE
8
layer1
10
-8.1346099
20
6.5537905
11
-8.2439057
21
6.6820276
0
LINE
8
layer1
10
-8.2439057
20
6.6820276
11
-8.3049828
21
6.7606314
0
LINE
8
layer1
10
-8.3049828
20
6.7606314
11
-8.3745053
21
6.8582691
0
LINE
8
layer1
10
-8.3745053
20
6.8582691
11
-8.4489027
21
6.9725831
0
LINE
8
layer1
10
-8.4489027
20
6.9725831
11
-8.5284289
21
7.106722
0
LINE
8
layer1
10
-8.5284289
20
7.106722
11
-8.6101323
21
7.2586703
0
LINE
8
layer1
10
-8.6101323
20
7.2586703
11
-8.6939132
21
7.4313975
0
LINE
8
layer1
10
-8.6939132
20
7.4313975
11
-8.7356634
21
7.5247916
0
LINE
8
layer1
10
-8.7356634
20
7.5247916
11
-8.8083059
21
7.7008857
0
ARC
8
layer1
10
0.000004
20
-0.0000024
40
11.7
50
136.4565272
51
138.8375991
0
LINE
8
layer1
10
-8.480763
20
8.0601831
11
-8.2987175
21
8.0040985
0
LINE
8
layer1
10
-8.2987175
20
8.0040985
11
-8.2018695
21
7.9711436
0
LINE
8
layer1
10
-8.2018695
20
7.9711436
11
-8.0221488
21
7.9036574
0
LINE
8
layer1
10
-8.0221488
20
7.9036574
11
-7.8633102
21
7.8363225
0
LINE
8
layer1
10
-7.8633102
20
7.8363225
11
-7.7224057
21
7.7695124
0
LINE
8
layer1
10
-7.7224057
20
7.7695124
11
-7.6017148
21
7.7059799
0
LINE
8
layer1
10
-7.6017148
20
7.7059799
11
-7.4980789
21
7.6457629
0
LINE
8
layer1
10
-7.4980789
20
7.6457629
11
-7.4141749
21
7.5921989
0
LINE
8
layer1
10
-7.4141749
20
7.5921989
11
-7.2764003
21
7.4952016
0
LINE
8
layer1
10
-7.2764003
20
7.4952016
11
-7.2439581
21
7.4763874
0
LINE
8
layer1
10
-7.2439581
20
7.4763874
11
-7.2140004
21
7.4621689
0
LINE
8
layer1
10
-7.2140004
20
7.4621689
11
-7.1867027
21
7.4524266
0
LINE
8
layer1
10
-7.1867027
20
7.4524266
11
-7.1622476
21
7.4470347
0
LINE
8
layer1
10
-7.1622476
20
7.4470347
11
-7.1407897
21
7.4458656
0
LINE
8
layer1
10
-7.1407897
20
7.4458656
11
-7.1225044
21
7.4488002
0
LINE
8
layer1
10
-7.1225044
20
7.4488002
11
-7.1075537
21
7.4557044
0
LINE
8
layer1
10
-7.1075537
20
7.4557044
11
-7.0775334
21
7.483261
0
LINE
8
layer1
10
-7.0775334
20
7.483261
11
-6.9390651
21
7.6117918
0
LINE
8
layer1
10
-6.9390651
20
7.6117918
11
-6.7983063
21
7.7378101
0
LINE
8
layer1
10
-6.7983063
20
7.7378101
11
-6.7680974
21
7.7651597
0
LINE
8
layer1
10
-6.7680974
20
7.7651597
11
-6.7598432
21
7.7794096
0
LINE
8
layer1
10
-6.7598432
20
7.7794096
11
-6.7552339
21
7.7973461
0
LINE
8
layer1
10
-6.7552339
20
7.7973461
11
-6.7544181
21
7.8188203
0
LINE
8
layer1
10
-6.7544181
20
7.8188203
11
-6.7575306
21
7.8436686
0
LINE
8
layer1
10
-6.7575306
20
7.8436686
11
-6.7647126
21
7.8717489
0
LINE
8
layer1
10
-6.7647126
20
7.8717489
11
-6.7761063
21
7.9028907
0
LINE
8
layer1
10
-6.7761063
20
7.9028907
11
-6.7918469
21
7.9369304
0
LINE
8
layer1
10
-6.7918469
20
7.9369304
11
-6.8757182
21
8.083067
0
LINE
8
layer1
10
-6.8757182
20
8.083067
11
-6.921312
21
8.1715554
0
LINE
8
layer1
10
-6.921312
20
8.1715554
11
-6.9717097
21
8.2803054
0
LINE
8
layer1
10
-6.9717097
20
8.2803054
11
-7.0238353
21
8.4063434
0
LINE
8
layer1
10
-7.0238353
20
8.4063434
11
-7.0773594
21
8.5528113
0
LINE
8
layer1
10
-7.0773594
20
8.5528113
11
-7.1297512
21
8.7171853
0
LINE
8
layer1
10
-7.1297512
20
8.7171853
11
-7.1803671
21
8.9023662
0
LINE
8
layer1
10
-7.1803671
20
8.9023662
11
-7.2042453
21
9.0018417
0
LINE
8
layer1
10
-7.2042453
20
9.0018417
11
-7.2432937
21
9.1882854
0
ARC
8
layer1
10
0.0000031
20
-0.0000034
40
11.7
50
125.8682897
51
128.2493615
0
LINE
8
layer1
10
-6.8553071
20
9.4812793
11
-6.6866669
21
9.3926988
0
LINE
8
layer1
10
-6.6866669
20
9.3926988
11
-6.5975233
21
9.3425093
0
LINE
8
layer1
10
-6.5975233
20
9.3425093
11
-6.4332633
21
9.2431486
0
LINE
8
layer1
10
-6.4332633
20
9.2431486
11
-6.2895019
21
9.1477737
0
LINE
8
layer1
10
-6.2895019
20
9.1477737
11
-6.1632729
21
9.05621
0
LINE
8
layer1
10
-6.1632729
20
9.05621
11
-6.0563111
21
8.9715823
0
LINE
8
layer1
10
-6.0563111
20
8.9715823
11
-5.9655046
21
8.8933476
0
LINE
8
layer1
10
-5.9655046
20
8.8933476
11
-5.8928716
21
8.8252784
0
LINE
8
layer1
10
-5.8928716
20
8.8252784
11
-5.775266
21
8.7046166
0
LINE
8
layer1
10
-5.775266
20
8.7046166
11
-5.7468334
21
8.6801615
0
LINE
8
layer1
10
-5.7468334
20
8.6801615
11
-5.7199984
21
8.6606804
0
LINE
8
layer1
10
-5.7199984
20
8.6606804
11
-5.6949556
21
8.646088
0
LINE
8
layer1
10
-5.6949556
20
8.646088
11
-5.6719077
21
8.6362943
0
LINE
8
layer1
10
-5.6719077
20
8.6362943
11
-5.6510299
21
8.6312023
0
LINE
8
layer1
10
-5.6510299
20
8.6312023
11
-5.6325168
21
8.630727
0
LINE
8
layer1
10
-5.6325168
20
8.630727
11
-5.616552
21
8.6347664
0
LINE
8
layer1
10
-5.616552
20
8.6347664
11
-5.5819794
21
8.6563376
0
LINE
8
layer1
10
-5.5819794
20
8.6563376
11
-5.4222513
21
8.7572365
0
LINE
8
layer1
10
-5.4222513
20
8.7572365
11
-5.2607333
21
8.8552447
0
LINE
8
layer1
10
-5.2607333
20
8.8552447
11
-5.2260133
21
8.8765778
0
LINE
8
layer1
10
-5.2260133
20
8.8765778
11
-5.2152812
21
8.8890683
0
LINE
8
layer1
10
-5.2152812
20
8.8890683
11
-5.2074547
21
8.9058525
0
LINE
8
layer1
10
-5.2074547
20
8.9058525
11
-5.2027068
21
8.9268111
0
LINE
8
layer1
10
-5.2027068
20
8.9268111
11
-5.2012005
21
8.9518083
0
LINE
8
layer1
10
-5.2012005
20
8.9518083
11
-5.2031004
21
8.9807301
0
LINE
8
layer1
10
-5.2031004
20
8.9807301
11
-5.2085779
21
9.0134352
0
LINE
8
layer1
10
-5.2085779
20
9.0134352
11
-5.2177957
21
9.0497877
0
LINE
8
layer1
10
-5.2177957
20
9.0497877
11
-5.2733863
21
9.2088474
0
LINE
8
layer1
10
-5.2733863
20
9.2088474
11
-5.3019441
21
9.3042068
0
LINE
8
layer1
10
-5.3019441
20
9.3042068
11
-5.331501
21
9.4203658
0
LINE
8
layer1
10
-5.331501
20
9.4203658
11
-5.3595796
21
9.5538358
0
LINE
8
layer1
10
-5.3595796
20
9.5538358
11
-5.385279
21
9.7076448
0
LINE
8
layer1
10
-5.385279
20
9.7076448
11
-5.4065751
21
9.878847
0
LINE
8
layer1
10
-5.4065751
20
9.878847
11
-5.4223022
21
10.0701754
0
LINE
8
layer1
10
-5.4223022
20
10.0701754
11
-5.4274953
21
10.1723449
0
LINE
8
layer1
10
-5.4274953
20
10.1723449
11
-5.4316199
21
10.3627891
0
ARC
8
layer1
10
0.0000027
20
-0.0000038
40
11.7
50
115.2800559
51
117.6611279
0
LINE
8
layer1
10
-4.996402
20
10.5795019
11
-4.8469098
21
10.4614421
0
LINE
8
layer1
10
-4.8469098
20
10.4614421
11
-4.7685064
21
10.3957271
0
LINE
8
layer1
10
-4.7685064
20
10.3957271
11
-4.6253007
21
10.2678754
0
LINE
8
layer1
10
-4.6253007
20
10.2678754
11
-4.5015122
21
10.1477084
0
LINE
8
layer1
10
-4.5015122
20
10.1477084
11
-4.3942572
21
10.0345092
0
LINE
8
layer1
10
-4.3942572
20
10.0345092
11
-4.304667
21
9.9316683
0
LINE
8
layer1
10
-4.304667
20
9.9316683
11
-4.2297822
21
9.83808
0
LINE
8
layer1
10
-4.2297822
20
9.83808
11
-4.1708936
21
9.7578235
0
LINE
8
layer1
10
-4.1708936
20
9.7578235
11
-4.0774621
21
9.6176063
0
LINE
8
layer1
10
-4.0774621
20
9.6176063
11
-4.0540071
21
9.5883432
0
LINE
8
layer1
10
-4.0540071
20
9.5883432
11
-4.0312088
21
9.5642628
0
LINE
8
layer1
10
-4.0312088
20
9.5642628
11
-4.0092736
21
9.5453173
0
LINE
8
layer1
10
-4.0092736
20
9.5453173
11
-3.9884177
21
9.5314553
0
LINE
8
layer1
10
-3.9884177
20
9.5314553
11
-3.9688312
21
9.5226137
0
LINE
8
layer1
10
-3.9688312
20
9.5226137
11
-3.9507206
21
9.5187447
0
LINE
8
layer1
10
-3.9507206
20
9.5187447
11
-3.9342854
21
9.5197818
0
LINE
8
layer1
10
-3.9342854
20
9.5197818
11
-3.8963377
21
9.534633
0
LINE
8
layer1
10
-3.8963377
20
9.534633
11
-3.7207892
21
9.604464
0
LINE
8
layer1
10
-3.7207892
20
9.604464
11
-3.5440124
21
9.6711245
0
LINE
8
layer1
10
-3.5440124
20
9.6711245
11
-3.5059636
21
9.6857146
0
LINE
8
layer1
10
-3.5059636
20
9.6857146
11
-3.4931191
21
9.6960205
0
LINE
8
layer1
10
-3.4931191
20
9.6960205
11
-3.4823417
21
9.7110807
0
LINE
8
layer1
10
-3.4823417
20
9.7110807
11
-3.4738236
21
9.7308101
0
LINE
8
layer1
10
-3.4738236
20
9.7308101
11
-3.4677497
21
9.7551048
0
LINE
8
layer1
10
-3.4677497
20
9.7551048
11
-3.4643029
21
9.7838833
0
LINE
8
layer1
10
-3.4643029
20
9.7838833
11
-3.4636776
21
9.817038
0
LINE
8
layer1
10
-3.4636776
20
9.817038
11
-3.4660587
21
9.8544653
0
LINE
8
layer1
10
-3.4660587
20
9.8544653
11
-3.4914757
21
10.0210314
0
LINE
8
layer1
10
-3.4914757
20
10.0210314
11
-3.5020249
21
10.1200147
0
LINE
8
layer1
10
-3.5020249
20
10.1200147
11
-3.5097344
21
10.2396269
0
LINE
8
layer1
10
-3.5097344
20
10.2396269
11
-3.5128099
21
10.3759838
0
LINE
8
layer1
10
-3.5128099
20
10.3759838
11
-3.5098093
21
10.5318961
0
LINE
8
layer1
10
-3.5098093
20
10.5318961
11
-3.4992845
21
10.7040964
0
LINE
8
layer1
10
-3.4992845
20
10.7040964
11
-3.4795873
21
10.895057
0
LINE
8
layer1
10
-3.4795873
20
10.895057
11
-3.4659184
21
10.996441
0
LINE
8
layer1
10
-3.4659184
20
10.996441
11
-3.4349787
21
11.1844005
0
ARC
8
layer1
10
7e-7
20
-0.0000045
40
11.7
50
104.6918144
51
107.072886
0
LINE
8
layer1
10
-2.9673504
20
11.3174522
11
-2.842097
21
11.1739335
0
LINE
8
layer1
10
-2.842097
20
11.1739335
11
-2.7771037
21
11.0949308
0
LINE
8
layer1
10
-2.7771037
20
11.0949308
11
-2.659829
21
10.9429421
0
LINE
8
layer1
10
-2.659829
20
10.9429421
11
-2.5602288
21
10.802075
0
LINE
8
layer1
10
-2.5602288
20
10.802075
11
-2.4756004
21
10.6710953
0
LINE
8
layer1
10
-2.4756004
20
10.6710953
11
-2.4064326
21
10.5535433
0
LINE
8
layer1
10
-2.4064326
20
10.5535433
11
-2.3500196
21
10.4477885
0
LINE
8
layer1
10
-2.3500196
20
10.4477885
11
-2.3068808
21
10.3580777
0
LINE
8
layer1
10
-2.3068808
20
10.3580777
11
-2.240805
21
10.20308
0
LINE
8
layer1
10
-2.240805
20
10.20308
11
-2.2231265
21
10.1700052
0
LINE
8
layer1
10
-2.2231265
20
10.1700052
11
-2.2051411
21
10.1421457
0
LINE
8
layer1
10
-2.2051411
20
10.1421457
11
-2.1870607
21
10.1194922
0
LINE
8
layer1
10
-2.1870607
20
10.1194922
11
-2.169107
21
10.102034
0
LINE
8
layer1
10
-2.169107
20
10.102034
11
-2.1514786
21
10.0897439
0
LINE
8
layer1
10
-2.1514786
20
10.0897439
11
-2.1343873
21
10.082613
0
LINE
8
layer1
10
-2.1343873
20
10.082613
11
-2.1180414
21
10.0806125
0
LINE
8
layer1
10
-2.1180414
20
10.0806125
11
-2.0780109
21
10.0882379
0
LINE
8
layer1
10
-2.0780109
20
10.0882379
11
-1.89262
21
10.1246229
0
LINE
8
layer1
10
-1.89262
20
10.1246229
11
-1.7066044
21
10.1576658
0
LINE
8
layer1
10
-1.7066044
20
10.1576658
11
-1.6665225
21
10.165016
0
LINE
8
layer1
10
-1.6665225
20
10.165016
11
-1.6520031
21
10.1727863
0
LINE
8
layer1
10
-1.6520031
20
10.1727863
11
-1.6386419
21
10.1856097
0
LINE
8
layer1
10
-1.6386419
20
10.1856097
11
-1.6266435
21
10.203438
0
LINE
8
layer1
10
-1.6266435
20
10.203438
11
-1.6162089
21
10.2262029
0
LINE
8
layer1
10
-1.6162089
20
10.2262029
11
-1.6075328
21
10.253858
0
LINE
8
layer1
10
-1.6075328
20
10.253858
11
-1.6008259
21
10.2863334
0
LINE
8
layer1
10
-1.6008259
20
10.2863334
11
-1.5962892
21
10.3235609
0
LINE
8
layer1
10
-1.5962892
20
10.3235609
11
-1.590667
21
10.4919613
0
LINE
8
layer1
10
-1.590667
20
10.4919613
11
-1.5828485
21
10.5911976
0
LINE
8
layer1
10
-1.5828485
20
10.5911976
11
-1.568448
21
10.7101898
0
LINE
8
layer1
10
-1.568448
20
10.7101898
11
-1.5464156
21
10.84479
0
LINE
8
layer1
10
-1.5464156
20
10.84479
11
-1.5148173
21
10.9974963
0
LINE
8
layer1
10
-1.5148173
20
10.9974963
11
-1.47283
21
11.1648307
0
LINE
8
layer1
10
-1.47283
20
11.1648307
11
-1.4183793
21
11.3489204
0
LINE
8
layer1
10
-1.4183793
20
11.3489204
11
-1.3863138
21
11.4460665
0
LINE
8
layer1
10
-1.3863138
20
11.4460665
11
-1.3213635
21
11.6251405
0
ARC
8
layer1
10
5e-7
20
-0.0000045
40
11.7
50
94.1035821
51
96.4846541
0
LINE
8
layer1
10
-0.8372492
20
11.6700003
11
-0.7405
21
11.50591
0
LINE
8
layer1
10
-0.7405
20
11.50591
11
-0.69113
21
11.41631
0
LINE
8
layer1
10
-0.69113
20
11.41631
11
-0.60378
21
11.24536
0
LINE
8
layer1
10
-0.60378
20
11.24536
11
-0.53176
21
11.08859
0
LINE
8
layer1
10
-0.53176
20
11.08859
11
-0.47264
21
10.94429
0
LINE
8
layer1
10
-0.47264
20
10.94429
11
-0.42625
21
10.81603
0
LINE
8
layer1
10
-0.42625
20
10.81603
11
-0.39023
21
10.70171
0
LINE
8
layer1
10
-0.39023
20
10.70171
11
-0.36431
21
10.6056
0
LINE
8
layer1
10
-0.36431
20
10.6056
11
-0.32784
21
10.4411
0
LINE
8
layer1
10
-0.32784
20
10.4411
11
-0.31654
21
10.40534
0
LINE
8
layer1
10
-0.31654
20
10.40534
11
-0.30398
21
10.37465
0
LINE
8
layer1
10
-0.30398
20
10.37465
11
-0.29037
21
10.34906
0
LINE
8
layer1
10
-0.29037
20
10.34906
11
-0.27593
21
10.3286
0
LINE
8
layer1
10
-0.27593
20
10.3286
11
-0.26086
21
10.31328
0
LINE
8
layer1
10
-0.26086
20
10.31328
11
-0.24537
21
10.30313
0
LINE
8
layer1
10
-0.24537
20
10.30313
11
-0.22967
21
10.29816
0
LINE
8
layer1
10
-0.22967
20
10.29816
11
-0.18892
21
10.2983
0
LINE
8
layer1
10
-0.18892
20
10.2983
11
0
21
10.3
0
LINE
8
layer1
10
0
20
10.3
11
0.18892
21
10.2983
0
LINE
8
layer1
10
0.18892
20
10.2983
11
0.22967
21
10.29816
0
LINE
8
layer1
10
0.22967
20
10.29816
11
0.24537
21
10.30313
0
LINE
8
layer1
10
0.24537
20
10.30313
11
0.26086
21
10.31328
0
LINE
8
layer1
10
0.26086
20
10.31328
11
0.27593
21
10.3286
0
LINE
8
layer1
10
0.27593
20
10.3286
11
0.29037
21
10.34906
0
LINE
8
layer1
10
0.29037
20
10.34906
11
0.30398
21
10.37465
0
LINE
8
layer1
10
0.30398
20
10.37465
11
0.31654
21
10.40534
0
LINE
8
layer1
10
0.31654
20
10.40534
11
0.32784
21
10.4411
0
LINE
8
layer1
10
0.32784
20
10.4411
11
0.36431
21
10.6056
0
LINE
8
layer1
10
0.36431
20
10.6056
11
0.39023
21
10.70171
0
LINE
8
layer1
10
0.39023
20
10.70171
11
0.42625
21
10.81603
0
LINE
8
layer1
10
0.42625
20
10.81603
11
0.47264
21
10.94429
0
LINE
8
layer1
10
0.47264
20
10.94429
11
0.53176
21
11.08859
0
LINE
8
layer1
10
0.53176
20
11.08859
11
0.60378
21
11.24536
0
LINE
8
layer1
10
0.60378
20
11.24536
11
0.69113
21
11.41631
0
LINE
8
layer1
10
0.69113
20
11.41631
11
0.7405
21
11.50591
0
LINE
8
layer1
10
0.7405
20
11.50591
11
0.8372492
21
11.6700003
0
ARC
8
layer1
10
-5e-7
20
-0.0000045
40
11.7
50
83.5153459
51
85.8964179
0
LINE
8
layer1
10
1.3213635
20
11.6251405
11
1.3863138
21
11.4460665
0
LINE
8
layer1
10
1.3863138
20
11.4460665
11
1.4183793
21
11.3489204
0
LINE
8
layer1
10
1.4183793
20
11.3489204
11
1.47283
21
11.1648307
0
LINE
8
layer1
10
1.47283
20
11.1648307
11
1.5148173
21
10.9974963
0
LINE
8
layer1
10
1.5148173
20
10.9974963
11
1.5464156
21
10.84479
0
LINE
8
layer1
10
1.5464156
20
10.84479
11
1.568448
21
10.7101898
0
LINE
8
layer1
10
1.568448
20
10.7101898
11
1.5828485
21
10.5911976
0
LINE
8
layer1
10
1.5828485
20
10.5911976
11
1.590667
21
10.4919613
0
LINE
8
layer1
10
1.590667
20
10.4919613
11
1.5962892
21
10.3235609
0
LINE
8
layer1
10
1.5962892
20
10.3235609
11
1.6008259
21
10.2863334
0
LINE
8
layer1
10
1.6008259
20
10.2863334
11
1.6075328
21
10.253858
0
LINE
8
layer1
10
1.6075328
20
10.253858
11
1.6162089
21
10.2262029
0
LINE
8
layer1
10
1.6162089
20
10.2262029
11
1.6266435
21
10.203438
0
LINE
8
layer1
10
1.6266435
20
10.203438
11
1.6386419
21
10.1856097
0
LINE
8
layer1
10
1.6386419
20
10.1856097
11
1.6520031
21
10.1727863
0
LINE
8
layer1
10
1.6520031
20
10.1727863
11
1.6665225
21
10.165016
0
LINE
8
layer1
10
1.6665225
20
10.165016
11
1.7066044
21
10.1576658
0
LINE
8
layer1
10
1.7066044
20
10.1576658
11
1.89262
21
10.1246229
0
LINE
8
layer1
10
1.89262
20
10.1246229
11
2.0780109
21
10.0882379
0
LINE
8
layer1
10
2.0780109
20
10.0882379
11
2.1180414
21
10.0806125
0
LINE
8
layer1
10
2.1180414
20
10.0806125
11
2.1343873
21
10.082613
0
LINE
8
layer1
10
2.1343873
20
10.082613
11
2.1514786
21
10.0897439
0
LINE
8
layer1
10
2.1514786
20
10.0897439
11
2.169107
21
10.102034
0
LINE
8
layer1
10
2.169107
20
10.102034
11
2.1870607
21
10.1194922
0
LINE
8
layer1
10
2.1870607
20
10.1194922
11
2.2051411
21
10.1421457
0
LINE
8
layer1
10
2.2051411
20
10.1421457
11
2.2231265
21
10.1700052
0
LINE
8
layer1
10
2.2231265
20
10.1700052
11
2.240805
21
10.20308
0
LINE
8
layer1
10
2.240805
20
10.20308
11
2.3068808
21
10.3580777
0
LINE
8
layer1
10
2.3068808
20
10.3580777
11
2.3500196
21
10.4477885
0
LINE
8
layer1
10
2.3500196
20
10.4477885
11
2.4064326
21
10.5535433
0
LINE
8
layer1
10
2.4064326
20
10.5535433
11
2.4756004
21
10.6710953
0
LINE
8
layer1
10
2.4756004
20
10.6710953
11
2.5602288
21
10.802075
0
LINE
8
layer1
10
2.5602288
20
10.802075
11
2.659829
21
10.9429421
0
LINE
8
layer1
10
2.659829
20
10.9429421
11
2.7771037
21
11.0949308
0
LINE
8
layer1
10
2.7771037
20
11.0949308
11
2.842097
21
11.1739335
0
LINE
8
layer1
10
2.842097
20
11.1739335
11
2.9673504
21
11.3174522
0
ARC
8
layer1
10
-7e-7
20
-0.0000045
40
11.7
50
72.927114
51
75.3081856
0
LINE
8
layer1
10
3.4349787
20
11.1844005
11
3.4659184
21
10.996441
0
LINE
8
layer1
10
3.4659184
20
10.996441
11
3.4795873
21
10.895057
0
LINE
8
layer1
10
3.4795873
20
10.895057
11
3.4992845
21
10.7040964
0
LINE
8
layer1
10
3.4992845
20
10.7040964
11
3.5098093
21
10.5318961
0
LINE
8
layer1
10
3.5098093
20
10.5318961
11
3.5128099
21
10.3759838
0
LINE
8
layer1
10
3.5128099
20
10.3759838
11
3.5097344
21
10.2396269
0
LINE
8
layer1
10
3.5097344
20
10.2396269
11
3.5020249
21
10.1200147
0
LINE
8
layer1
10
3.5020249
20
10.1200147
11
3.4914757
21
10.0210314
0
LINE
8
layer1
10
3.4914757
20
10.0210314
11
3.4660587
21
9.8544653
0
LINE
8
layer1
10
3.4660587
20
9.8544653
11
3.4636776
21
9.817038
0
LINE
8
layer1
10
3.4636776
20
9.817038
11
3.4643029
21
9.7838833
0
LINE
8
layer1
10
3.4643029
20
9.7838833
11
3.4677497
21
9.7551048
0
LINE
8
layer1
10
3.4677497
20
9.7551048
11
3.4738236
21
9.7308101
0
LINE
8
layer1
10
3.4738236
20
9.7308101
11
3.4823417
21
9.7110807
0
LINE
8
layer1
10
3.4823417
20
9.7110807
11
3.4931191
21
9.6960205
0
LINE
8
layer1
10
3.4931191
20
9.6960205
11
3.5059636
21
9.6857146
0
LINE
8
layer1
10
3.5059636
20
9.6857146
11
3.5440124
21
9.6711245
0
LINE
8
layer1
10
3.5440124
20
9.6711245
11
3.7207892
21
9.604464
0
LINE
8
layer1
10
3.7207892
20
9.604464
11
3.8963377
21
9.534633
0
LINE
8
layer1
10
3.8963377
20
9.534633
11
3.9342854
21
9.5197818
0
LINE
8
layer1
10
3.9342854
20
9.5197818
11
3.9507206
21
9.5187447
0
LINE
8
layer1
10
3.9507206
20
9.5187447
11
3.9688312
21
9.5226137
0
LINE
8
layer1
10
3.9688312
20
9.5226137
11
3.9884177
21
9.5314553
0
LINE
8
layer1
10
3.9884177
20
9.5314553
11
4.0092736
21
9.5453173
0
LINE
8
layer1
10
4.0092736
20
9.5453173
11
4.0312088
21
9.5642628
0
LINE
8
layer1
10
4.0312088
20
9.5642628
11
4.0540071
21
9.5883432
0
LINE
8
layer1
10
4.0540071
20
9.5883432
11
4.0774621
21
9.6176063
0
LINE
8
layer1
10
4.0774621
20
9.6176063
11
4.1708936
21
9.7578235
0
LINE
8
layer1
10
4.1708936
20
9.7578235
11
4.2297822
21
9.83808
0
LINE
8
layer1
10
4.2297822
20
9.83808
11
4.304667
21
9.9316683
0
LINE
8
layer1
10
4.304667
20
9.9316683
11
4.3942572
21
10.0345092
0
LINE
8
layer1
10
4.3942572
20
10.0345092
11
4.5015122
21
10.1477084
0
LINE
8
layer1
10
4.5015122
20
10.1477084
11
4.6253007
21
10.2678754
0
LINE
8
layer1
10
4.6253007
20
10.2678754
11
4.7685064
21
10.3957271
0
LINE
8
layer1
10
4.7685064
20
10.3957271
11
4.8469098
21
10.4614421
0
LINE
8
layer1
10
4.8469098
20
10.4614421
11
4.996402
21
10.5795019
0
ARC
8
layer1
10
-0.0000027
20
-0.0000038
40
11.7
50
62.3388721
51
64.7199441
0
LINE
8
layer1
10
5.4316199
20
10.3627891
11
5.4274953
21
10.1723449
0
LINE
8
layer1
10
5.4274953
20
10.1723449
11
5.4223022
21
10.0701754
0
LINE
8
layer1
10
5.4223022
20
10.0701754
11
5.4065751
21
9.878847
0
LINE
8
layer1
10
5.4065751
20
9.878847
11
5.385279
21
9.7076448
0
LINE
8
layer1
10
5.385279
20
9.7076448
11
5.3595796
21
9.5538358
0
LINE
8
layer1
10
5.3595796
20
9.5538358
11
5.331501
21
9.4203658
0
LINE
8
layer1
10
5.331501
20
9.4203658
11
5.3019441
21
9.3042068
0
LINE
8
layer1
10
5.3019441
20
9.3042068
11
5.2733863
21
9.2088474
0
LINE
8
layer1
10
5.2733863
20
9.2088474
11
5.2177957
21
9.0497877
0
LINE
8
layer1
10
5.2177957
20
9.0497877
11
5.2085779
21
9.0134352
0
LINE
8
layer1
10
5.2085779
20
9.0134352
11
5.2031004
21
8.9807301
0
LINE
8
layer1
10
5.2031004
20
8.9807301
11
5.2012005
21
8.9518083
0
LINE
8
layer1
10
5.2012005
20
8.9518083
11
5.2027068
21
8.9268111
0
LINE
8
layer1
10
5.2027068
20
8.9268111
11
5.2074547
21
8.9058525
0
LINE
8
layer1
10
5.2074547
20
8.9058525
11
5.2152812
21
8.8890683
0
LINE
8
layer1
10
5.2152812
20
8.8890683
11
5.2260133
21
8.8765778
0
LINE
8
layer1
10
5.2260133
20
8.8765778
11
5.2607333
21
8.8552447
0
LINE
8
layer1
10
5.2607333
20
8.8552447
11
5.4222513
21
8.7572365
0
LINE
8
layer1
10
5.4222513
20
8.7572365
11
5.5819794
21
8.6563376
0
LINE
8
layer1
10
5.5819794
20
8.6563376
11
5.616552
21
8.6347664
0
LINE
8
layer1
10
5.616552
20
8.6347664
11
5.6325168
21
8.630727
0
LINE
8
layer1
10
5.6325168
20
8.630727
11
5.6510299
21
8.6312023
0
LINE
8
layer1
10
5.6510299
20
8.6312023
11
5.6719077
21
8.6362943
0
LINE
8
layer1
10
5.6719077
20
8.6362943
11
5.6949556
21
8.646088
0
LINE
8
layer1
10
5.6949556
20
8.646088
11
5.7199984
21
8.6606804
0
LINE
8
layer1
10
5.7199984
20
8.6606804
11
5.7468334
21
8.6801615
0
LINE
8
layer1
10
5.7468334
20
8.6801615
11
5.775266
21
8.7046166
0
LINE
8
layer1
10
5.775266
20
8.7046166
11
5.8928716
21
8.8252784
0
LINE
8
layer1
10
5.8928716
20
8.8252784
11
5.9655046
21
8.8933476
0
LINE
8
layer1
10
5.9655046
20
8.8933476
11
6.0563111
21
8.9715823
0
LINE
8
layer1
10
6.0563111
20
8.9715823
11
6.1632729
21
9.05621
0
LINE
8
layer1
10
6.1632729
20
9.05621
11
6.2895019
21
9.1477737
0
LINE
8
layer1
10
6.2895019
20
9.1477737
11
6.4332633
21
9.2431486
0
LINE
8
layer1
10
6.4332633
20
9.2431486
11
6.5975233
21
9.3425093
0
LINE
8
layer1
10
6.5975233
20
9.3425093
11
6.6866669
21
9.3926988
0
LINE
8
layer1
10
6.6866669
20
9.3926988
11
6.8553071
21
9.4812793
0
ARC
8
layer1
10
-0.0000031
20
-0.0000034
40
11.7
50
51.7506385
51
54.1317103
0
LINE
8
layer1
10
7.2432937
20
9.1882854
11
7.2042453
21
9.0018417
0
LINE
8
layer1
10
7.2042453
20
9.0018417
11
7.1803671
21
8.9023662
0
LINE
8
layer1
10
7.1803671
20
8.9023662
11
7.1297512
21
8.7171853
0
LINE
8
layer1
10
7.1297512
20
8.7171853
11
7.0773594
21
8.5528113
0
LINE
8
layer1
10
7.0773594
20
8.5528113
11
7.0238353
21
8.4063434
0
LINE
8
layer1
10
7.0238353
20
8.4063434
11
6.9717097
21
8.2803054
0
LINE
8
layer1
10
6.9717097
20
8.2803054
11
6.921312
21
8.1715554
0
LINE
8
layer1
10
6.921312
20
8.1715554
11
6.8757182
21
8.083067
0
LINE
8
layer1
10
6.8757182
20
8.083067
11
6.7918469
21
7.9369304
0
LINE
8
layer1
10
6.7918469
20
7.9369304
11
6.7761063
21
7.9028907
0
LINE
8
layer1
10
6.7761063
20
7.9028907
11
6.7647126
21
7.8717489
0
LINE
8
layer1
10
6.7647126
20
7.8717489
11
6.7575306
21
7.8436686
0
LINE
8
layer1
10
6.7575306
20
7.8436686
11
6.7544181
21
7.8188203
0
LINE
8
layer1
10
6.7544181
20
7.8188203
11
6.7552339
21
7.7973461
0
LINE
8
layer1
10
6.7552339
20
7.7973461
11
6.7598432
21
7.7794096
0
LINE
8
layer1
10
6.7598432
20
7.7794096
11
6.7680974
21
7.7651597
0
LINE
8
layer1
10
6.7680974
20
7.7651597
11
6.7983063
21
7.7378101
0
LINE
8
layer1
10
6.7983063
20
7.7378101
11
6.9390651
21
7.6117918
0
LINE
8
layer1
10
6.9390651
20
7.6117918
11
7.0775334
21
7.483261
0
LINE
8
layer1
10
7.0775334
20
7.483261
11
7.1075537
21
7.4557044
0
LINE
8
layer1
10
7.1075537
20
7.4557044
11
7.1225044
21
7.4488002
0
LINE
8
layer1
10
7.1225044
20
7.4488002
11
7.1407897
21
7.4458656
0
LINE
8
layer1
10
7.1407897
20
7.4458656
11
7.1622476
21
7.4470347
0
LINE
8
layer1
10
7.1622476
20
7.4470347
11
7.1867027
21
7.4524266
0
LINE
8
layer1
10
7.1867027
20
7.4524266
11
7.2140004
21
7.4621689
0
LINE
8
layer1
10
7.2140004
20
7.4621689
11
7.2439581
21
7.4763874
0
LINE
8
layer1
10
7.2439581
20
7.4763874
11
7.2764003
21
7.4952016
0
LINE
8
layer1
10
7.2764003
20
7.4952016
11
7.4141749
21
7.5921989
0
LINE
8
layer1
10
7.4141749
20
7.5921989
11
7.4980789
21
7.6457629
0
LINE
8
layer1
10
7.4980789
20
7.6457629
11
7.6017148
21
7.7059799
0
LINE
8
layer1
10
7.6017148
20
7.7059799
11
7.7224057
21
7.7695124
0
LINE
8
layer1
10
7.7224057
20
7.7695124
11
7.8633102
21
7.8363225
0
LINE
8
layer1
10
7.8633102
20
7.8363225
11
8.0221488
21
7.9036574
0
LINE
8
layer1
10
8.0221488
20
7.9036574
11
8.2018695
21
7.9711436
0
LINE
8
layer1
10
8.2018695
20
7.9711436
11
8.2987175
21
8.0040985
0
LINE
8
layer1
10
8.2987175
20
8.0040985
11
8.480763
21
8.0601831
0
ARC
8
layer1
10
-0.000004
20
-0.0000025
40
11.7
50
41.1624009
51
43.5434728
0
LINE
8
layer1
10
8.8083059
20
7.7008857
11
8.7356634
21
7.5247916
0
LINE
8
layer1
10
8.7356634
20
7.5247916
11
8.6939132
21
7.4313975
0
LINE
8
layer1
10
8.6939132
20
7.4313975
11
8.6101323
21
7.2586703
0
LINE
8
layer1
10
8.6101323
20
7.2586703
11
8.5284289
21
7.106722
0
LINE
8
layer1
10
8.5284289
20
7.106722
11
8.4489027
21
6.9725831
0
LINE
8
layer1
10
8.4489027
20
6.9725831
11
8.3745053
21
6.8582691
0
LINE
8
layer1
10
8.3745053
20
6.8582691
11
8.3049828
21
6.7606314
0
LINE
8
layer1
10
8.3049828
20
6.7606314
11
8.2439057
21
6.6820276
0
LINE
8
layer1
10
8.2439057
20
6.6820276
11
8.1346099
21
6.5537905
0
LINE
8
layer1
10
8.1346099
20
6.5537905
11
8.1128826
21
6.5232227
0
LINE
8
layer1
10
8.1128826
20
6.5232227
11
8.0959606
21
6.4947047
0
LINE
8
layer1
10
8.0959606
20
6.4947047
11
8.0837411
21
6.4684223
0
LINE
8
layer1
10
8.0837411
20
6.4684223
11
8.0761158
21
6.444569
0
LINE
8
layer1
10
8.0761158
20
6.444569
11
8.0729718
21
6.4233105
0
LINE
8
layer1
10
8.0729718
20
6.4233105
11
8.0742068
21
6.4048325
0
LINE
8
layer1
10
8.0742068
20
6.4048325
11
8.079702
21
6.3893085
0
LINE
8
layer1
10
8.079702
20
6.3893085
11
8.1043711
21
6.3568737
0
LINE
8
layer1
10
8.1043711
20
6.3568737
11
8.2195774
21
6.2071368
0
LINE
8
layer1
10
8.2195774
20
6.2071368
11
8.3320705
21
6.0553509
0
LINE
8
layer1
10
8.3320705
20
6.0553509
11
8.3565162
21
6.0227473
0
LINE
8
layer1
10
8.3565162
20
6.0227473
11
8.3699437
21
6.0132135
0
LINE
8
layer1
10
8.3699437
20
6.0132135
11
8.3873784
21
6.006969
0
LINE
8
layer1
10
8.3873784
20
6.006969
11
8.4086857
21
6.0041752
0
LINE
8
layer1
10
8.4086857
20
6.0041752
11
8.4337152
21
6.0049817
0
LINE
8
layer1
10
8.4337152
20
6.0049817
11
8.4623383
21
6.0095422
0
LINE
8
layer1
10
8.4623383
20
6.0095422
11
8.4943985
21
6.0180139
0
LINE
8
layer1
10
8.4943985
20
6.0180139
11
8.5297454
21
6.0305465
0
LINE
8
layer1
10
8.5297454
20
6.0305465
11
8.6829973
21
6.1005762
0
LINE
8
layer1
10
8.6829973
20
6.1005762
11
8.7753151
21
6.1378109
0
LINE
8
layer1
10
8.7753151
20
6.1378109
11
8.8882513
21
6.1779595
0
LINE
8
layer1
10
8.8882513
20
6.1779595
11
9.0185612
21
6.2182334
0
LINE
8
layer1
10
9.0185612
20
6.2182334
11
9.1693428
21
6.2580148
0
LINE
8
layer1
10
9.1693428
20
6.2580148
11
9.3378497
21
6.2950166
0
LINE
8
layer1
10
9.3378497
20
6.2950166
11
9.5269109
21
6.3283302
0
LINE
8
layer1
10
9.5269109
20
6.3283302
11
9.6281653
21
6.3429281
0
LINE
8
layer1
10
9.6281653
20
6.3429281
11
9.8174166
21
6.3646071
0
ARC
8
layer1
10
-0.0000044
20
-0.0000016
40
11.7
50
30.5741655
51
32.9552373
0
LINE
8
layer1
10
10.0733618
20
5.9512415
11
9.969599
21
5.7914938
0
LINE
8
layer1
10
9.969599
20
5.7914938
11
9.9113985
21
5.7073615
0
LINE
8
layer1
10
9.9113985
20
5.7073615
11
9.7973056
21
5.55297
0
LINE
8
layer1
10
9.7973056
20
5.55297
11
9.6890729
21
5.4186219
0
LINE
8
layer1
10
9.6890729
20
5.4186219
11
9.5862529
21
5.3013798
0
LINE
8
layer1
10
9.5862529
20
5.3013798
11
9.492117
21
5.2026828
0
LINE
8
layer1
10
9.492117
20
5.2026828
11
9.4058375
21
5.1194822
0
LINE
8
layer1
10
9.4058375
20
5.1194822
11
9.3313569
21
5.0534396
0
LINE
8
layer1
10
9.3313569
20
5.0534396
11
9.2003586
21
4.9474691
0
LINE
8
layer1
10
9.2003586
20
4.9474691
11
9.1733844
21
4.9214141
0
LINE
8
layer1
10
9.1733844
20
4.9214141
11
9.1515103
21
4.8964912
0
LINE
8
layer1
10
9.1515103
20
4.8964912
11
9.1346696
21
4.8729016
0
LINE
8
layer1
10
9.1346696
20
4.8729016
11
9.122791
21
4.8508556
0
LINE
8
layer1
10
9.122791
20
4.8508556
11
9.1157944
21
4.8305368
0
LINE
8
layer1
10
9.1157944
20
4.8305368
11
9.1136129
21
4.8121464
0
LINE
8
layer1
10
9.1136129
20
4.8121464
11
9.1161621
21
4.7958771
0
LINE
8
layer1
10
9.1161621
20
4.7958771
11
9.1344512
21
4.7594616
0
LINE
8
layer1
10
9.1344512
20
4.7594616
11
9.2201819
21
4.5911051
0
LINE
8
layer1
10
9.2201819
20
4.5911051
11
9.302869
21
4.4212331
0
LINE
8
layer1
10
9.302869
20
4.4212331
11
9.3209075
21
4.3846928
0
LINE
8
layer1
10
9.3209075
20
4.3846928
11
9.3323546
21
4.372854
0
LINE
8
layer1
10
9.3323546
20
4.372854
11
9.348345
21
4.3635122
0
LINE
8
layer1
10
9.348345
20
4.3635122
11
9.3687762
21
4.3568508
0
LINE
8
layer1
10
9.3687762
20
4.3568508
11
9.3935277
21
4.3530444
0
LINE
8
layer1
10
9.3935277
20
4.3530444
11
9.4225014
21
4.3522677
0
LINE
8
layer1
10
9.4225014
20
4.3522677
11
9.4555724
21
4.3547042
0
LINE
8
layer1
10
9.4555724
20
4.3547042
11
9.4926203
21
4.3605284
0
LINE
8
layer1
10
9.4926203
20
4.3605284
11
9.6561307
21
4.4012058
0
LINE
8
layer1
10
9.6561307
20
4.4012058
11
9.7537184
21
4.420843
0
LINE
8
layer1
10
9.7537184
20
4.420843
11
9.872109
21
4.4395561
0
LINE
8
layer1
10
9.872109
20
4.4395561
11
10.0076004
21
4.4551999
0
LINE
8
layer1
10
10.0076004
20
4.4551999
11
10.1631245
21
4.4665978
0
LINE
8
layer1
10
10.1631245
20
4.4665978
11
10.3355614
21
4.4720066
0
LINE
8
layer1
10
10.3355614
20
4.4720066
11
10.5275248
21
4.470013
0
LINE
8
layer1
10
10.5275248
20
4.470013
11
10.6297375
21
4.465757
0
LINE
8
layer1
10
10.6297375
20
4.465757
11
10.81975
21
4.452292
0
ARC
8
layer1
10
-0.0000037
20
-0.0000029
40
11.7
50
19.9859415
51
22.3670132
0
LINE
8
layer1
10
10.9953814
20
3.9989349
11
10.8640318
21
3.8609736
0
LINE
8
layer1
10
10.8640318
20
3.8609736
11
10.791363
21
3.7889681
0
LINE
8
layer1
10
10.791363
20
3.7889681
11
10.6508434
21
3.6581699
0
LINE
8
layer1
10
10.6508434
20
3.6581699
11
10.5197672
21
3.5459971
0
LINE
8
layer1
10
10.5197672
20
3.5459971
11
10.3971547
21
3.4496444
0
LINE
8
layer1
10
10.3971547
20
3.4496444
11
10.2864862
21
3.3699253
0
LINE
8
layer1
10
10.2864862
20
3.3699253
11
10.1863876
21
3.3039952
0
LINE
8
layer1
10
10.1863876
20
3.3039952
11
10.1010399
21
3.2527629
0
LINE
8
layer1
10
10.1010399
20
3.2527629
11
9.9528
21
3.1726676
0
LINE
8
layer1
10
9.9528
20
3.1726676
11
9.9214976
21
3.1520127
0
LINE
8
layer1
10
9.9214976
20
3.1520127
11
9.8954163
21
3.1315335
0
LINE
8
layer1
10
9.8954163
20
3.1315335
11
9.8745278
21
3.11144
0
LINE
8
layer1
10
9.8745278
20
3.11144
11
9.8588005
21
3.0919521
0
LINE
8
layer1
10
9.8588005
20
3.0919521
11
9.8481894
21
3.0732649
0
LINE
8
layer1
10
9.8481894
20
3.0732649
11
9.842666
21
3.0555885
0
LINE
8
layer1
10
9.842666
20
3.0555885
11
9.8421822
21
3.0391278
0
LINE
8
layer1
10
9.8421822
20
3.0391278
11
9.8534686
21
2.9999717
0
LINE
8
layer1
10
9.8534686
20
2.9999717
11
9.9068041
21
2.8187288
0
LINE
8
layer1
10
9.9068041
20
2.8187288
11
9.9568694
21
2.6365555
0
LINE
8
layer1
10
9.9568694
20
2.6365555
11
9.9678865
21
2.5973228
0
LINE
8
layer1
10
9.9678865
20
2.5973228
11
9.9769633
21
2.5835822
0
LINE
8
layer1
10
9.9769633
20
2.5835822
11
9.9909649
21
2.5714612
0
LINE
8
layer1
10
9.9909649
20
2.5714612
11
10.0098242
21
2.561159
0
LINE
8
layer1
10
10.0098242
20
2.561159
11
10.0334548
21
2.5528694
0
LINE
8
layer1
10
10.0334548
20
2.5528694
11
10.0617925
21
2.546782
0
LINE
8
layer1
10
10.0617925
20
2.546782
11
10.0947481
21
2.5431002
0
LINE
8
layer1
10
10.0947481
20
2.5431002
11
10.1322354
21
2.5420177
0
LINE
8
layer1
10
10.1322354
20
2.5420177
11
10.3004362
21
2.5519575
0
LINE
8
layer1
10
10.3004362
20
2.5519575
11
10.3999706
21
2.5533287
0
LINE
8
layer1
10
10.3999706
20
2.5533287
11
10.5197839
21
2.5499689
0
LINE
8
layer1
10
10.5197839
20
2.5499689
11
10.6558428
21
2.5404499
0
LINE
8
layer1
10
10.6558428
20
2.5404499
11
10.8108132
21
2.5230763
0
LINE
8
layer1
10
10.8108132
20
2.5230763
11
10.9813079
21
2.4967078
0
LINE
8
layer1
10
10.9813079
20
2.4967078
11
11.1696364
21
2.459475
0
LINE
8
layer1
10
11.1696364
20
2.459475
11
11.2693267
21
2.4365098
0
LINE
8
layer1
10
11.2693267
20
2.4365098
11
11.4536297
21
2.3883594
0
ARC
8
layer1
10
-0.0000043
20
-0.0000018
40
11.7
50
9.397704
51
11.7787759
0
LINE
8
layer1
10
11.5429665
20
1.9104494
11
11.3885031
21
1.7989726
0
ENDSEC
0
EOF