  0
SECTION
  2
HEADER
  9
$ACADVER
  1
AC1009
  9
$MEASUREMENT
  70
0
  9
$INSUNITS
  70
1
  9
$DIMLFAC
  40
1
  9
$INSBASE
  10
0.0
  20
0.0
  30
0.0
  9
$EXTMIN
  10
0
  20
0
  9
$EXTMAX
  10
16.649999969963
  20
16.649999969963
  9
$LIMMIN
  10
0
  20
0
  9
$LIMMAX
  10
16.649999969963
  20
16.649999969963
  9
$CLAYER
  8
0
  0
ENDSEC
  0
SECTION
  2
TABLES
  0
TABLE
  2
LTYPE
  70
2
  0
LTYPE
  2
CONTINUOUS
  70
65
  3
Solid line
  72
65
  73
0
  40
0
  0
LTYPE
  2
DASHED
  70
65
  3
 _ _ _ _ _ _ _ _ _ _ _ _ _ _ _ _ _ _ _ _ _ _
  72
65
  73
2
  40
2
  49
1
  49
-1
  0
ENDTAB
  0
TABLE
  2
LAYER
  70
1
  0
LAYER
  2
0
  70
0
  62
7
  6
CONTINUOUS
  0
ENDTAB
  0
ENDSEC
  0
SECTION
  2
BLOCKS
  0
ENDSEC
  0
SECTION
  2
ENTITIES
  0
CIRCLE
  8
0
  10
10.506102332168
  20
7.380118080199
  30
0
  40
0.102362204724
  0
CIRCLE
  8
0
  10
8.143897607758
  20
7.380118080199
  30
0
  40
0.102362204724
  0
CIRCLE
  8
0
  10
9.718700757365
  20
6.592716505396
  30
0
  40
0.102362204724
  0
CIRCLE
  8
0
  10
8.931299182561
  20
6.592716505396
  30
0
  40
0.102362204724
  0
CIRCLE
  8
0
  10
11.799873469963
  20
12.799874969963
  30
0
  40
0.13
  0
CIRCLE
  8
0
  10
6.850126469963
  20
12.799874969963
  30
0
  40
0.13
  0
CIRCLE
  8
0
  10
11.799873469963
  20
7.850124969963
  30
0
  40
0.13
  0
CIRCLE
  8
0
  10
6.850126469963
  20
7.850124969963
  30
0
  40
0.13
  0
CIRCLE
  8
0
  10
15.118052002579
  20
8.599664160016
  30
0
  40
0.09375
  0
CIRCLE
  8
0
  10
14.505687905767
  20
7.543935410743
  30
0
  40
0.09375
  0
CIRCLE
  8
0
  10
3.532066689339
  20
8.602757652183
  30
0
  40
0.09375
  0
CIRCLE
  8
0
  10
8.714763749491
  20
16.202044410779
  30
0
  40
0.09375
  0
CIRCLE
  8
0
  10
9.935236190435
  20
16.202044410779
  30
0
  40
0.09375
  0
CIRCLE
  8
0
  10
4.136711088822
  20
7.542588736736
  30
0
  40
0.09375
  0
CIRCLE
  8
0
  10
9.324999969963
  20
16.399999969963
  30
0
  40
0.0975
  0
CIRCLE
  8
0
  10
2.249999969963
  20
9.324999969963
  30
0
  40
0.0975
  0
CIRCLE
  8
0
  10
16.399999969963
  20
9.324999969963
  30
0
  40
0.0975
  0
CIRCLE
  8
0
  10
10.074991693908
  20
2.289305370696
  30
0
  40
0.0975
  0
CIRCLE
  8
0
  10
9.324999969963
  20
3.360236190435
  30
0
  40
0.787401574803
  0
CIRCLE
  8
0
  10
9.324999957789
  20
4.655864611345
  30
0
  40
0.0975
  0
CIRCLE
  8
0
  10
8.202952713695
  20
2.71242177608
  30
0
  40
0.0975
  0
CIRCLE
  8
0
  10
10.447047201884
  20
2.71242177608
  30
0
  40
0.0975
  0
CIRCLE
  8
0
  10
9.324999969963
  20
10.324999969963
  30
0
  40
1.985
  0
CIRCLE
  8
0
  10
9.324999923391
  20
8.015599191401
  30
0
  40
0.0975
  0
CIRCLE
  8
0
  10
7.324999923391
  20
11.479700806539
  30
0
  40
0.0975
  0
CIRCLE
  8
0
  10
11.324999923391
  20
11.479700806539
  30
0
  40
0.0975
  0
CIRCLE
  8
0
  10
12.514999969963
  20
13.514999969963
  30
0
  40
0.13
  0
CIRCLE
  8
0
  10
6.134999969963
  20
13.514999969963
  30
0
  40
0.13
  0
CIRCLE
  8
0
  10
12.514999969963
  20
7.134999969963
  30
0
  40
0.13
  0
CIRCLE
  8
0
  10
6.134999969963
  20
7.134999969963
  30
0
  40
0.13
  0
CIRCLE
  8
0
  10
12.080905481774
  20
6.427559025081
  30
0
  40
0.0975
  0
CIRCLE
  8
0
  10
10.899803119569
  20
6.11259839516
  30
0
  40
0.0975
  0
CIRCLE
  8
0
  10
13.72159020485
  20
9.099178991426
  30
0
  40
0.125
  0
CIRCLE
  8
0
  10
13.346983611434
  20
8.171995136859
  30
0
  40
0.125
  0
CIRCLE
  8
0
  10
9.824999969963
  20
15.176111583957
  30
0
  40
0.125
  0
CIRCLE
  8
0
  10
8.824999969963
  20
15.176111583957
  30
0
  40
0.125
  0
CIRCLE
  8
0
  10
4.928409735077
  20
9.087929582157
  30
0
  40
0.125
  0
CIRCLE
  8
0
  10
5.303016328493
  20
8.16074572759
  30
0
  40
0.125
  0
CIRCLE
  8
0
  10
8.824999969963
  20
15.164862174687
  30
0
  40
0.125
  0
CIRCLE
  8
0
  10
9.824999969963
  20
15.164862174687
  30
0
  40
0.125
  0
CIRCLE
  8
0
  10
8.575008246018
  20
2.289305370696
  30
0
  40
0.0975
  0
LINE
  8
0
  10
5.265944839679
  20
4.259663823943
  30
0
  11
5.265944839679
  21
3.078561461739
  31
0
  0
LINE
  8
0
  10
5.265944839679
  20
3.078561461739
  30
0
  11
5.391929091647
  21
3.078561461739
  31
0
  0
LINE
  8
0
  10
5.391929091647
  20
3.078561461739
  30
0
  11
5.391929091647
  21
4.259663823943
  31
0
  0
LINE
  8
0
  10
5.391929091647
  20
4.259663823943
  30
0
  11
5.265944839679
  21
4.259663823943
  31
0
  0
LINE
  8
0
  10
13.258070823931
  20
4.259663823943
  30
0
  11
13.258070823931
  21
3.078561461739
  31
0
  0
LINE
  8
0
  10
13.258070823931
  20
3.078561461739
  30
0
  11
13.384055075899
  21
3.078561461739
  31
0
  0
LINE
  8
0
  10
13.384055075899
  20
3.078561461739
  30
0
  11
13.384055075899
  21
4.259663823943
  31
0
  0
LINE
  8
0
  10
13.384055075899
  20
4.259663823943
  30
0
  11
13.258070823931
  21
4.259663823943
  31
0
  0
LINE
  8
0
  10
6.815157450278
  20
6.611535403034
  30
0
  11
7.80728343453
  21
6.611535403034
  31
0
  0
LINE
  8
0
  10
7.80728343453
  20
6.611535403034
  30
0
  11
7.80728343453
  21
6.737519655002
  31
0
  0
LINE
  8
0
  10
7.80728343453
  20
6.737519655002
  30
0
  11
6.815157450278
  21
6.737519655002
  31
0
  0
LINE
  8
0
  10
6.815157450278
  20
6.737519655002
  30
0
  11
6.815157450278
  21
6.611535403034
  31
0
  0
LINE
  8
0
  10
10.842716505396
  20
6.611535403034
  30
0
  11
11.834842489648
  21
6.611535403034
  31
0
  0
LINE
  8
0
  10
11.834842489648
  20
6.611535403034
  30
0
  11
11.834842489648
  21
6.737519655002
  31
0
  0
LINE
  8
0
  10
11.834842489648
  20
6.737519655002
  30
0
  11
10.842716505396
  21
6.737519655002
  31
0
  0
LINE
  8
0
  10
10.842716505396
  20
6.737519655002
  30
0
  11
10.842716505396
  21
6.611535403034
  31
0
  0
CIRCLE
  8
0
  10
3.324999969963
  20
10.324999969963
  30
0
  40
0.095
  0
CIRCLE
  8
0
  10
15.324999969963
  20
10.324999969963
  30
0
  40
0.095
  0
CIRCLE
  8
0
  10
7.311220442404
  20
4.914685009333
  30
0
  40
0.133858267717
  0
CIRCLE
  8
0
  10
7.311220442404
  20
5.914685009333
  30
0
  40
0.133858267717
  0
CIRCLE
  8
0
  10
11.338779497522
  20
5.973740127443
  30
0
  40
0.133858267717
  0
CIRCLE
  8
0
  10
11.338779497522
  20
4.973740127443
  30
0
  40
0.133858267717
  0
LINE
  8
0
  10
1.999999969963
  20
13.649999969963
  30
0
  11
1.999999969963
  21
4.999999969963
  31
0
  0
ARC
  8
0
  10
4.999999969963
  20
4.999999969963
  30
0
  40
3
  50
180
  51
270
  0
LINE
  8
0
  10
4.999999969963
  20
1.999999969963
  30
0
  11
13.649999969963
  21
1.999999969963
  31
0
  0
ARC
  8
0
  10
13.649999969963
  20
4.999999969963
  30
0
  40
3
  50
270
  51
360
  0
LINE
  8
0
  10
16.649999969963
  20
4.999999969963
  30
0
  11
16.649999969963
  21
13.649999969963
  31
0
  0
ARC
  8
0
  10
13.649999969963
  20
13.649999969963
  30
0
  40
3
  50
0
  51
90
  0
LINE
  8
0
  10
13.649999969963
  20
16.649999969963
  30
0
  11
4.999999969963
  21
16.649999969963
  31
0
  0
ARC
  8
0
  10
4.999999969963
  20
13.649999969963
  30
0
  40
3
  50
90
  51
180
  0
LINE
  8
0
  10
0
  20
0.999999984982
  30
0
  11
0
  21
0
  31
0
  0
LINE
  8
0
  10
0
  20
0.999999984982
  30
0
  11
0.999999984982
  21
0.999999984982
  31
0
  0
LINE
  8
0
  10
0.999999984982
  20
0
  30
0
  11
0.999999984982
  21
0.999999984982
  31
0
  0
LINE
  8
0
  10
0
  20
0
  30
0
  11
0.999999984982
  21
0
  31
0
  0
TEXT
  8
0
  40
0.099999998498
  72
0
  10
0.299212598425
  20
0.692913385827
  30
0
  1
1"x1"
  50
0
  0
TEXT
  8
0
  40
0.099999998498
  72
0
  10
0.275590551181
  20
0.433070866142
  30
0
  1
scaling
  50
0
  0
TEXT
  8
0
  40
0.099999998498
  72
0
  10
0.208661417323
  20
0.177165354331
  30
0
  1
reference
  50
0
  0
ENDSEC
  0
EOF
