  0
SECTION
  2
HEADER
  9
$ACADVER
  1
AC1014
  9
$ACADMAINTVER
 70
     9
  9
$DWGCODEPAGE
  3
ANSI_1252
  9
$INSBASE
 10
0.0
 20
0.0
 30
0.0
  9
$EXTMIN
 10
1.000000000000000E+20
 20
1.000000000000000E+20
 30
1.000000000000000E+20
  9
$EXTMAX
 10
-1.000000000000000E+20
 20
-1.000000000000000E+20
 30
-1.000000000000000E+20
  9
$LIMMIN
 10
0.0
 20
0.0
  9
$LIMMAX
 10
12.0
 20
9.0
  9
$ORTHOMODE
 70
     0
  9
$REGENMODE
 70
     1
  9
$FILLMODE
 70
     1
  9
$QTEXTMODE
 70
     0
  9
$MIRRTEXT
 70
     1
  9
$DRAGMODE
 70
     2
  9
$LTSCALE
 40
1.0
  9
$OSMODE
 70
    37
  9
$ATTMODE
 70
     1
  9
$TEXTSIZE
 40
0.2
  9
$TRACEWID
 40
0.05
  9
$TEXTSTYLE
  7
STANDARD
  9
$CLAYER
  8
0
  9
$CELTYPE
  6
BYLAYER
  9
$CECOLOR
 62
   256
  9
$CELTSCALE
 40
1.0
  9
$DELOBJ
 70
     1
  9
$DISPSILH
 70
     0
  9
$DIMSCALE
 40
1.0
  9
$DIMASZ
 40
0.18
  9
$DIMEXO
 40
0.0625
  9
$DIMDLI
 40
0.38
  9
$DIMRND
 40
0.0
  9
$DIMDLE
 40
0.0
  9
$DIMEXE
 40
0.18
  9
$DIMTP
 40
0.0
  9
$DIMTM
 40
0.0
  9
$DIMTXT
 40
0.18
  9
$DIMCEN
 40
0.09
  9
$DIMTSZ
 40
0.0
  9
$DIMTOL
 70
     0
  9
$DIMLIM
 70
     0
  9
$DIMTIH
 70
     1
  9
$DIMTOH
 70
     1
  9
$DIMSE1
 70
     0
  9
$DIMSE2
 70
     0
  9
$DIMTAD
 70
     0
  9
$DIMZIN
 70
     0
  9
$DIMBLK
  1

  9
$DIMASO
 70
     1
  9
$DIMSHO
 70
     1
  9
$DIMPOST
  1

  9
$DIMAPOST
  1

  9
$DIMALT
 70
     0
  9
$DIMALTD
 70
     2
  9
$DIMALTF
 40
25.4
  9
$DIMLFAC
 40
1.0
  9
$DIMTOFL
 70
     0
  9
$DIMTVP
 40
0.0
  9
$DIMTIX
 70
     0
  9
$DIMSOXD
 70
     0
  9
$DIMSAH
 70
     0
  9
$DIMBLK1
  1

  9
$DIMBLK2
  1

  9
$DIMSTYLE
  2
STANDARD
  9
$DIMCLRD
 70
     0
  9
$DIMCLRE
 70
     0
  9
$DIMCLRT
 70
     0
  9
$DIMTFAC
 40
1.0
  9
$DIMGAP
 40
0.09
  9
$DIMJUST
 70
     0
  9
$DIMSD1
 70
     0
  9
$DIMSD2
 70
     0
  9
$DIMTOLJ
 70
     1
  9
$DIMTZIN
 70
     0
  9
$DIMALTZ
 70
     0
  9
$DIMALTTZ
 70
     0
  9
$DIMFIT
 70
     3
  9
$DIMUPT
 70
     0
  9
$DIMUNIT
 70
     2
  9
$DIMDEC
 70
     4
  9
$DIMTDEC
 70
     4
  9
$DIMALTU
 70
     2
  9
$DIMALTTD
 70
     2
  9
$DIMTXSTY
  7
STANDARD
  9
$DIMAUNIT
 70
     0
  9
$LUNITS
 70
     2
  9
$LUPREC
 70
     4
  9
$SKETCHINC
 40
0.1
  9
$FILLETRAD
 40
0.5
  9
$AUNITS
 70
     0
  9
$AUPREC
 70
     0
  9
$MENU
  1
.
  9
$ELEVATION
 40
0.0
  9
$PELEVATION
 40
0.0
  9
$THICKNESS
 40
0.0
  9
$LIMCHECK
 70
     0
  9
$CHAMFERA
 40
0.0
  9
$CHAMFERB
 40
0.0
  9
$CHAMFERC
 40
0.0
  9
$CHAMFERD
 40
0.0
  9
$SKPOLY
 70
     0
  9
$TDCREATE
 40
2460420.706092315
  9
$TDUPDATE
 40
2460420.7060925
  9
$TDINDWG
 40
0.0000000116
  9
$TDUSRTIMER
 40
0.0000000116
  9
$USRTIMER
 70
     1
  9
$ANGBASE
 50
0.0
  9
$ANGDIR
 70
     0
  9
$PDMODE
 70
     0
  9
$PDSIZE
 40
0.0
  9
$PLINEWID
 40
0.0
  9
$COORDS
 70
     1
  9
$SPLFRAME
 70
     0
  9
$SPLINETYPE
 70
     6
  9
$SPLINESEGS
 70
     8
  9
$ATTDIA
 70
     0
  9
$ATTREQ
 70
     1
  9
$HANDLING
 70
     1
  9
$HANDSEED
  5
2A7
  9
$SURFTAB1
 70
     6
  9
$SURFTAB2
 70
     6
  9
$SURFTYPE
 70
     6
  9
$SURFU
 70
     6
  9
$SURFV
 70
     6
  9
$UCSNAME
  2

  9
$UCSORG
 10
0.0
 20
0.0
 30
0.0
  9
$UCSXDIR
 10
1.0
 20
0.0
 30
0.0
  9
$UCSYDIR
 10
0.0
 20
1.0
 30
0.0
  9
$PUCSNAME
  2

  9
$PUCSORG
 10
0.0
 20
0.0
 30
0.0
  9
$PUCSXDIR
 10
1.0
 20
0.0
 30
0.0
  9
$PUCSYDIR
 10
0.0
 20
1.0
 30
0.0
  9
$USERI1
 70
     0
  9
$USERI2
 70
     0
  9
$USERI3
 70
     0
  9
$USERI4
 70
     0
  9
$USERI5
 70
     0
  9
$USERR1
 40
0.0
  9
$USERR2
 40
0.0
  9
$USERR3
 40
0.0
  9
$USERR4
 40
0.0
  9
$USERR5
 40
0.0
  9
$WORLDVIEW
 70
     1
  9
$SHADEDGE
 70
     3
  9
$SHADEDIF
 70
    70
  9
$TILEMODE
 70
     1
  9
$MAXACTVP
 70
    64
  9
$PINSBASE
 10
0.0
 20
0.0
 30
0.0
  9
$PLIMCHECK
 70
     0
  9
$PEXTMIN
 10
1.000000000000000E+20
 20
1.000000000000000E+20
 30
1.000000000000000E+20
  9
$PEXTMAX
 10
-1.000000000000000E+20
 20
-1.000000000000000E+20
 30
-1.000000000000000E+20
  9
$PLIMMIN
 10
0.0
 20
0.0
  9
$PLIMMAX
 10
12.0
 20
9.0
  9
$UNITMODE
 70
     0
  9
$VISRETAIN
 70
     1
  9
$PLINEGEN
 70
     0
  9
$PSLTSCALE
 70
     1
  9
$TREEDEPTH
 70
  3020
  9
$PICKSTYLE
 70
     1
  9
$CMLSTYLE
  2
STANDARD
  9
$CMLJUST
 70
     0
  9
$CMLSCALE
 40
1.0
  9
$PROXYGRAPHICS
 70
     1
  9
$MEASUREMENT
 70
     0
  0
ENDSEC
  0
SECTION
  2
CLASSES
  0
CLASS
  1
ACDBDICTIONARYWDFLT
  2
AcDbDictionaryWithDefault
  3
ObjectDBX Classes
 90
        0
280
     0
281
     0
  0
CLASS
  1
VISUALSTYLE
  2
AcDbVisualStyle
  3
ObjectDBX Classes
 90
     4095
280
     0
281
     0
  0
CLASS
  1
MATERIAL
  2
AcDbMaterial
  3
ObjectDBX Classes
 90
     1153
280
     0
281
     0
  0
CLASS
  1
SCALE
  2
AcDbScale
  3
ObjectDBX Classes
 90
     1153
280
     0
281
     0
  0
CLASS
  1
TABLESTYLE
  2
AcDbTableStyle
  3
ObjectDBX Classes
 90
     4095
280
     0
281
     0
  0
CLASS
  1
MLEADERSTYLE
  2
AcDbMLeaderStyle
  3
ACDB_MLEADERSTYLE_CLASS
 90
     4095
280
     0
281
     0
  0
CLASS
  1
SUN
  2
AcDbSun
  3
SCENEOE
 90
     1153
280
     0
281
     0
  0
CLASS
  1
DICTIONARYVAR
  2
AcDbDictionaryVar
  3
ObjectDBX Classes
 90
        0
280
     0
281
     0
  0
CLASS
  1
XRECORD
  2
AcDbXrecord
  3
ObjectDBX Classes
 90
        0
280
     0
281
     0
  0
CLASS
  1
LWPOLYLINE
  2
AcDbPolyline
  3
ObjectDBX Classes
 90
        0
280
     0
281
     1
  0
CLASS
  1
HATCH
  2
AcDbHatch
  3
ObjectDBX Classes
 90
        0
280
     0
281
     1
  0
CLASS
  1
ACDBPLACEHOLDER
  2
AcDbPlaceHolder
  3
ObjectDBX Classes
 90
        0
280
     0
281
     0
  0
CLASS
  1
LAYOUT
  2
AcDbLayout
  3
ObjectDBX Classes
 90
        0
280
     0
281
     0
  0
ENDSEC
  0
SECTION
  2
TABLES
  0
TABLE
  2
VPORT
  5
8
102
{ACAD_XDICTIONARY
360
29C
102
}
330
0
100
AcDbSymbolTable
 70
     1
  0
VPORT
  5
29
330
8
100
AcDbSymbolTableRecord
100
AcDbViewportTableRecord
  2
*ACTIVE
 70
     0
 10
0.0
 20
0.0
 11
1.0
 21
1.0
 12
0.0
 22
0.0
 13
0.0
 23
0.0
 14
0.5
 24
0.5
 15
0.5
 25
0.5
 16
0.0
 26
0.0
 36
1.0
 17
0.0
 27
0.0
 37
-1000.0
 40
8.803447583872412
 41
1.803374054682955
 42
50.0
 43
10.79854252093568
 44
14.29821863669916
 50
0.0
 51
0.0
 71
     0
 72
   100
 73
     1
 74
     3
 75
     0
 76
     0
 77
     0
 78
     0
  0
ENDTAB
  0
TABLE
  2
LTYPE
  5
5
330
0
100
AcDbSymbolTable
 70
     1
  0
LTYPE
  5
14
330
5
100
AcDbSymbolTableRecord
100
AcDbLinetypeTableRecord
  2
BYBLOCK
 70
     0
  3

 72
    65
 73
     0
 40
0.0
  0
LTYPE
  5
15
330
5
100
AcDbSymbolTableRecord
100
AcDbLinetypeTableRecord
  2
BYLAYER
 70
     0
  3

 72
    65
 73
     0
 40
0.0
  0
LTYPE
  5
16
330
5
100
AcDbSymbolTableRecord
100
AcDbLinetypeTableRecord
  2
CONTINUOUS
 70
     0
  3
Solid line
 72
    65
 73
     0
 40
0.0
  0
ENDTAB
  0
TABLE
  2
LAYER
  5
2
330
0
100
AcDbSymbolTable
 70
     3
  0
LAYER
  5
10
330
2
100
AcDbSymbolTableRecord
100
AcDbLayerTableRecord
  2
0
 70
     0
 62
     7
  6
CONTINUOUS
  0
LAYER
  5
6E
330
2
100
AcDbSymbolTableRecord
100
AcDbLayerTableRecord
  2
PROFILEEDGES
 70
     0
 62
     7
  6
CONTINUOUS
  0
LAYER
  5
6F
330
2
100
AcDbSymbolTableRecord
100
AcDbLayerTableRecord
  2
SECTIONCUTEDGES
 70
     0
 62
     7
  6
CONTINUOUS
  0
ENDTAB
  0
TABLE
  2
STYLE
  5
3
330
0
100
AcDbSymbolTable
 70
     1
  0
STYLE
  5
11
330
3
100
AcDbSymbolTableRecord
100
AcDbTextStyleTableRecord
  2
STANDARD
 70
     0
 40
0.0
 41
1.0
 50
0.0
 71
     0
 42
0.2
  3
txt
  4

  0
ENDTAB
  0
TABLE
  2
VIEW
  5
6
330
0
100
AcDbSymbolTable
 70
     0
  0
ENDTAB
  0
TABLE
  2
UCS
  5
7
330
0
100
AcDbSymbolTable
 70
     0
  0
ENDTAB
  0
TABLE
  2
APPID
  5
9
330
0
100
AcDbSymbolTable
 70
     2
  0
APPID
  5
12
330
9
100
AcDbSymbolTableRecord
100
AcDbRegAppTableRecord
  2
ACAD
 70
     0
  0
APPID
  5
2A6
330
9
100
AcDbSymbolTableRecord
100
AcDbRegAppTableRecord
  2
ACAD_MLEADERVER
 70
     0
  0
ENDTAB
  0
TABLE
  2
DIMSTYLE
  5
A
330
0
100
AcDbSymbolTable
 70
     1
  0
DIMSTYLE
105
27
330
A
100
AcDbSymbolTableRecord
100
AcDbDimStyleTableRecord
  2
STANDARD
 70
     0
  3

  4

  5

  6

  7

 40
1.0
 41
0.18
 42
0.0625
 43
0.38
 44
0.18
 45
0.0
 46
0.0
 47
0.0
 48
0.0
140
0.18
141
0.09
142
0.0
143
25.4
144
1.0
145
0.0
146
1.0
147
0.09
 71
     0
 72
     0
 73
     1
 74
     1
 75
     0
 76
     0
 77
     0
 78
     0
170
     0
171
     2
172
     0
173
     0
174
     0
175
     0
176
     0
177
     0
178
     0
270
     2
271
     4
272
     4
273
     2
274
     2
340
11
275
     0
280
     0
281
     0
282
     0
283
     1
284
     0
285
     0
286
     0
287
     3
288
     0
  0
ENDTAB
  0
TABLE
  2
BLOCK_RECORD
  5
1
330
0
100
AcDbSymbolTable
 70
     1
  0
BLOCK_RECORD
  5
1F
330
1
100
AcDbSymbolTableRecord
100
AcDbBlockTableRecord
  2
*MODEL_SPACE
  0
BLOCK_RECORD
  5
1B
330
1
100
AcDbSymbolTableRecord
100
AcDbBlockTableRecord
  2
*PAPER_SPACE
  0
ENDTAB
  0
ENDSEC
  0
SECTION
  2
BLOCKS
  0
BLOCK
  5
20
330
1F
100
AcDbEntity
  8
0
100
AcDbBlockBegin
  2
*MODEL_SPACE
 70
     0
 10
0.0
 20
0.0
 30
0.0
  3
*MODEL_SPACE
  1

  0
ENDBLK
  5
21
330
1F
100
AcDbEntity
  8
0
100
AcDbBlockEnd
  0
BLOCK
  5
1C
330
1B
100
AcDbEntity
 67
     1
  8
0
100
AcDbBlockBegin
  2
*PAPER_SPACE
 70
     0
 10
0.0
 20
0.0
 30
0.0
  3
*PAPER_SPACE
  1

  0
ENDBLK
  5
1D
330
1B
100
AcDbEntity
 67
     1
  8
0
100
AcDbBlockEnd
  0
ENDSEC
  0
SECTION
  2
ENTITIES
  0
LWPOLYLINE
  5
70
330
1F
100
AcDbEntity
  8
PROFILEEDGES
100
AcDbPolyline
 90
        2
 70
     0
 43
0.0102425219125915
 10
-0.380438854463482
 20
-0.0719140958588342
 10
-0.4969364188809147
 20
-0.1911030628072532
  0
LWPOLYLINE
  5
71
330
1F
100
AcDbEntity
  8
PROFILEEDGES
100
AcDbPolyline
 90
        2
 70
     0
 43
0.0102425219125915
 10
-0.661688854463482
 20
-0.7214331486971632
 10
-0.6425221317510834
 20
-0.915547432524054
  0
LWPOLYLINE
  5
72
330
1F
100
AcDbEntity
  8
PROFILEEDGES
100
AcDbPolyline
 90
        2
 70
     0
 43
0.0102425219125915
 10
-0.099188854463482
 20
0.0285668513028368
 10
-0.244774567333649
 20
0.0030112210196367
  0
LWPOLYLINE
  5
73
330
1F
100
AcDbEntity
  8
PROFILEEDGES
100
AcDbPolyline
 90
        2
 70
     0
 43
0.0102425219125915
 10
-0.5863281440922288
 20
-0.3464331486971632
 10
-0.6425221317510825
 20
-0.5273188648702729
  0
LWPOLYLINE
  5
74
330
1F
100
AcDbEntity
  8
PROFILEEDGES
100
AcDbPolyline
 90
        2
 70
     0
 43
0.0102425219125915
 10
-0.6425221317510834
 20
-0.915547432524054
 10
-0.6174924634274821
 20
-0.9961167188287714
  0
LWPOLYLINE
  5
75
330
1F
100
AcDbEntity
  8
PROFILEEDGES
100
AcDbPolyline
 90
        2
 70
     0
 43
0.0102425219125915
 10
-0.6425221317510825
 20
-0.5273188648702729
 10
-0.661688854463482
 20
-0.7214331486971632
  0
LWPOLYLINE
  5
76
330
1F
100
AcDbEntity
  8
PROFILEEDGES
100
AcDbPolyline
 90
        2
 70
     0
 43
0.0102425219125915
 10
-0.4969364188809147
 20
-0.1911030628072532
 10
-0.5863281440922288
 20
-0.3464331486971632
  0
LWPOLYLINE
  5
77
330
1F
100
AcDbEntity
  8
PROFILEEDGES
100
AcDbPolyline
 90
        2
 70
     0
 43
0.0102425219125915
 10
-0.244774567333649
 20
0.0030112210196367
 10
-0.380438854463482
 20
-0.0719140958588342
  0
LWPOLYLINE
  5
78
330
1F
100
AcDbEntity
  8
PROFILEEDGES
100
AcDbPolyline
 90
        2
 70
     0
 43
0.0102425219125915
 10
0.419114754500518
 20
-0.9961167188287714
 10
0.4441444228241194
 20
-0.9155474325240549
  0
LWPOLYLINE
  5
79
330
1F
100
AcDbEntity
  8
PROFILEEDGES
100
AcDbPolyline
 90
        2
 70
     0
 43
0.0102425219125915
 10
0.182061145536518
 20
-0.0719140958588342
 10
0.0463968584066867
 20
0.0030112210196367
  0
LWPOLYLINE
  5
7A
330
1F
100
AcDbEntity
  8
PROFILEEDGES
100
AcDbPolyline
 90
        2
 70
     0
 43
0.0102425219125915
 10
0.0463968584066867
 20
0.0030112210196367
 10
-0.099188854463482
 20
0.0285668513028368
  0
LWPOLYLINE
  5
7B
330
1F
100
AcDbEntity
  8
PROFILEEDGES
100
AcDbPolyline
 90
        2
 70
     0
 43
0.0102425219125915
 10
0.4441444228241194
 20
-0.9155474325240549
 10
0.463311145536518
 20
-0.7214331486971632
  0
LWPOLYLINE
  5
7C
330
1F
100
AcDbEntity
  8
PROFILEEDGES
100
AcDbPolyline
 90
        2
 70
     0
 43
0.0102425219125915
 10
0.4441444228241194
 20
-0.5273188648702729
 10
0.3879504351652647
 20
-0.3464331486971632
  0
LWPOLYLINE
  5
7D
330
1F
100
AcDbEntity
  8
PROFILEEDGES
100
AcDbPolyline
 90
        2
 70
     0
 43
0.0102425219125915
 10
0.2985587099539506
 20
-0.1911030628072532
 10
0.182061145536518
 20
-0.0719140958588342
  0
LWPOLYLINE
  5
7E
330
1F
100
AcDbEntity
  8
PROFILEEDGES
100
AcDbPolyline
 90
        2
 70
     0
 43
0.0102425219125915
 10
0.3879504351652647
 20
-0.3464331486971632
 10
0.2985587099539506
 20
-0.1911030628072532
  0
LWPOLYLINE
  5
7F
330
1F
100
AcDbEntity
  8
PROFILEEDGES
100
AcDbPolyline
 90
        2
 70
     0
 43
0.0102425219125915
 10
0.463311145536518
 20
-0.7214331486971632
 10
0.4441444228241194
 20
-0.5273188648702729
  0
LWPOLYLINE
  5
80
330
1F
100
AcDbEntity
  8
PROFILEEDGES
100
AcDbPolyline
 90
        2
 70
     0
 43
0.0102425219125915
 10
-1.504405582133266
 20
2.265525246141909
 10
-1.544492944107307
 20
2.230419171050284
  0
LWPOLYLINE
  5
81
330
1F
100
AcDbEntity
  8
PROFILEEDGES
100
AcDbPolyline
 90
        2
 70
     0
 43
0.0102425219125915
 10
0.900938111877791
 20
2.431180220801506
 10
0.8836109008432111
 20
2.412465150812924
  0
LWPOLYLINE
  5
82
330
1F
100
AcDbEntity
  8
PROFILEEDGES
100
AcDbPolyline
 90
        2
 70
     0
 43
0.0102425219125915
 10
0.9813258731515133
 20
2.477351987367985
 10
0.9420864553019501
 20
2.461144329906894
  0
LWPOLYLINE
  5
83
330
1F
100
AcDbEntity
  8
PROFILEEDGES
100
AcDbPolyline
 90
        2
 70
     0
 43
0.0102425219125915
 10
3.080432804462453
 20
1.841267457070758
 10
3.103662208221064
 20
1.83694310723935
  0
LWPOLYLINE
  5
84
330
1F
100
AcDbEntity
  8
PROFILEEDGES
100
AcDbPolyline
 90
        2
 70
     0
 43
0.0102425219125915
 10
-3.355090942058063
 20
1.833412822688165
 10
-3.347467254554219
 20
1.83484738915593
  0
LWPOLYLINE
  5
85
330
1F
100
AcDbEntity
  8
PROFILEEDGES
100
AcDbPolyline
 90
        2
 70
     0
 43
0.0102425219125915
 10
-1.544492944107307
 20
2.230419171050284
 10
-1.5874040831675
 20
2.198826738142098
  0
LWPOLYLINE
  5
86
330
1F
100
AcDbEntity
  8
PROFILEEDGES
100
AcDbPolyline
 90
        2
 70
     0
 43
0.0102425219125915
 10
2.573733475176342
 20
0.4508326625321555
 10
2.574470582821212
 20
0.4541397347285745
  0
LWPOLYLINE
  5
87
330
1F
100
AcDbEntity
  8
PROFILEEDGES
100
AcDbPolyline
 90
        2
 70
     0
 43
0.0102425219125915
 10
2.572209999229
 20
0.4339925763236012
 10
2.572341861599048
 20
0.4306069574078935
  0
LWPOLYLINE
  5
88
330
1F
100
AcDbEntity
  8
PROFILEEDGES
100
AcDbPolyline
 90
        2
 70
     0
 43
0.0102425219125915
 10
1.015060337421436
 20
1.893944577820164
 10
1.027652142466497
 20
1.845274278410283
  0
LWPOLYLINE
  5
89
330
1F
100
AcDbEntity
  8
PROFILEEDGES
100
AcDbPolyline
 90
        2
 70
     0
 43
0.0102425219125915
 10
1.556861489688292
 20
2.118941845299197
 10
1.608440251712698
 20
2.105559792956475
  0
LWPOLYLINE
  5
8A
330
1F
100
AcDbEntity
  8
PROFILEEDGES
100
AcDbPolyline
 90
        2
 70
     0
 43
0.0102425219125915
 10
3.171737433330254
 20
1.829559133659643
 10
3.179110311998131
 20
1.827147219975609
  0
LWPOLYLINE
  5
8B
330
1F
100
AcDbEntity
  8
PROFILEEDGES
100
AcDbPolyline
 90
        2
 70
     0
 43
0.0102425219125915
 10
3.156713233131097
 20
1.833412822688165
 10
3.149089545627252
 20
1.83484738915593
  0
LWPOLYLINE
  5
8C
330
1F
100
AcDbEntity
  8
PROFILEEDGES
100
AcDbPolyline
 90
        2
 70
     0
 43
0.0102425219125915
 10
1.164785553062968
 20
2.437605357457779
 10
1.122227573869709
 20
2.465531081577431
  0
LWPOLYLINE
  5
8D
330
1F
100
AcDbEntity
  8
PROFILEEDGES
100
AcDbPolyline
 90
        2
 70
     0
 43
0.0102425219125915
 10
3.149089545627252
 20
1.83484738915593
 10
3.141410890438399
 20
1.835949953059018
  0
LWPOLYLINE
  5
8E
330
1F
100
AcDbEntity
  8
PROFILEEDGES
100
AcDbPolyline
 90
        2
 70
     0
 43
0.0102425219125915
 10
-3.355090942058063
 20
1.833412822688165
 10
-3.384749462373639
 20
1.82441783411904
  0
LWPOLYLINE
  5
8F
330
1F
100
AcDbEntity
  8
PROFILEEDGES
100
AcDbPolyline
 90
        2
 70
     0
 43
0.0102425219125915
 10
-1.755239198615258
 20
2.118941845299197
 10
-1.806817960639664
 20
2.105559792956475
  0
LWPOLYLINE
  5
90
330
1F
100
AcDbEntity
  8
PROFILEEDGES
100
AcDbPolyline
 90
        2
 70
     0
 43
0.0102425219125915
 10
2.573139343586468
 20
0.447497205383641
 10
2.573733475176342
 20
0.4508326625321555
  0
LWPOLYLINE
  5
91
330
1F
100
AcDbEntity
  8
PROFILEEDGES
100
AcDbPolyline
 90
        2
 70
     0
 43
0.0102425219125915
 10
0.9420864553019501
 20
2.461144329906894
 10
0.9205397235183006
 20
2.447497926271313
  0
LWPOLYLINE
  5
92
330
1F
100
AcDbEntity
  8
PROFILEEDGES
100
AcDbPolyline
 90
        2
 70
     0
 43
0.0102425219125915
 10
1.183003285650167
 20
2.419755878323151
 10
1.164785553062968
 20
2.437605357457779
  0
LWPOLYLINE
  5
93
330
1F
100
AcDbEntity
  8
PROFILEEDGES
100
AcDbPolyline
 90
        2
 70
     0
 43
0.0102425219125915
 10
0.8568994594427282
 20
2.36913462033091
 10
0.8479638314678657
 20
2.345246505461785
  0
LWPOLYLINE
  5
94
330
1F
100
AcDbEntity
  8
PROFILEEDGES
100
AcDbPolyline
 90
        2
 70
     0
 43
0.0102425219125915
 10
1.073931929545114
 20
2.481610781476699
 10
1.057109414973571
 20
2.484127880932284
  0
LWPOLYLINE
  5
95
330
1F
100
AcDbEntity
  8
PROFILEEDGES
100
AcDbPolyline
 90
        2
 70
     0
 43
0.0102425219125915
 10
-1.213438046348402
 20
1.893944577820164
 10
-1.198745154108614
 20
1.942022322581954
  0
LWPOLYLINE
  5
96
330
1F
100
AcDbEntity
  8
PROFILEEDGES
100
AcDbPolyline
 90
        2
 70
     0
 43
0.0102425219125915
 10
1.000367445181648
 20
1.942022322581954
 10
1.015060337421436
 20
1.893944577820164
  0
LWPOLYLINE
  5
97
330
1F
100
AcDbEntity
  8
PROFILEEDGES
100
AcDbPolyline
 90
        2
 70
     0
 43
0.0102425219125915
 10
0.8964918118818281
 20
2.170398382602221
 10
0.9211973082418257
 20
2.126614971805252
  0
LWPOLYLINE
  5
98
330
1F
100
AcDbEntity
  8
PROFILEEDGES
100
AcDbPolyline
 90
        2
 70
     0
 43
0.0102425219125915
 10
0.8688486982574353
 20
2.391666921955839
 10
0.8568994594427282
 20
2.36913462033091
  0
LWPOLYLINE
  5
99
330
1F
100
AcDbEntity
  8
PROFILEEDGES
100
AcDbPolyline
 90
        2
 70
     0
 43
0.0102425219125915
 10
-1.226029851393462
 20
1.845274278410283
 10
-1.213438046348402
 20
1.893944577820164
  0
LWPOLYLINE
  5
9A
330
1F
100
AcDbEntity
  8
PROFILEEDGES
100
AcDbPolyline
 90
        2
 70
     0
 43
0.0102425219125915
 10
0.9647931404057197
 20
2.036038817295384
 10
0.9790668724094602
 20
2.000656631900087
  0
LWPOLYLINE
  5
9B
330
1F
100
AcDbEntity
  8
PROFILEEDGES
100
AcDbPolyline
 90
        2
 70
     0
 43
0.0102425219125915
 10
1.02312774630604
 20
2.484769245683184
 10
0.9813258731515133
 20
2.477351987367985
  0
LWPOLYLINE
  5
9C
330
1F
100
AcDbEntity
  8
PROFILEEDGES
100
AcDbPolyline
 90
        2
 70
     0
 43
0.0102425219125915
 10
0.9836011748670335
 20
1.989416857316245
 10
1.000367445181648
 20
1.942022322581954
  0
LWPOLYLINE
  5
9D
330
1F
100
AcDbEntity
  8
PROFILEEDGES
100
AcDbPolyline
 90
        2
 70
     0
 43
0.0102425219125915
 10
0.9205397235183006
 20
2.447497926271313
 10
0.900938111877791
 20
2.431180220801506
  0
LWPOLYLINE
  5
9E
330
1F
100
AcDbEntity
  8
PROFILEEDGES
100
AcDbPolyline
 90
        2
 70
     0
 43
0.0102425219125915
 10
-3.285298802809478
 20
1.839319689918197
 10
-3.30203991714803
 20
1.83694310723935
  0
LWPOLYLINE
  5
9F
330
1F
100
AcDbEntity
  8
PROFILEEDGES
100
AcDbPolyline
 90
        2
 70
     0
 43
0.0102425219125915
 10
2.980078031609352
 20
1.466431530354036
 10
2.964617393998623
 20
1.440367386009256
  0
LWPOLYLINE
  5
A0
330
1F
100
AcDbEntity
  8
PROFILEEDGES
100
AcDbPolyline
 90
        2
 70
     0
 43
0.0102425219125915
 10
2.572224116612582
 20
0.4373805981982173
 10
2.572209999229
 20
0.4339925763236012
  0
LWPOLYLINE
  5
A1
330
1F
100
AcDbEntity
  8
PROFILEEDGES
100
AcDbPolyline
 90
        2
 70
     0
 43
0.0102425219125915
 10
1.027652142466497
 20
1.845274278410283
 10
1.038119056005151
 20
1.796103243664939
  0
LWPOLYLINE
  5
A2
330
1F
100
AcDbEntity
  8
PROFILEEDGES
100
AcDbPolyline
 90
        2
 70
     0
 43
0.0102425219125915
 10
-1.680450707058294
 20
2.147060352898465
 10
-1.729920422086591
 20
2.127256834043738
  0
LWPOLYLINE
  5
A3
330
1F
100
AcDbEntity
  8
PROFILEEDGES
100
AcDbPolyline
 90
        2
 70
     0
 43
0.0102425219125915
 10
0.8836109008432111
 20
2.412465150812924
 10
0.8688486982574353
 20
2.391666921955839
  0
LWPOLYLINE
  5
A4
330
1F
100
AcDbEntity
  8
PROFILEEDGES
100
AcDbPolyline
 90
        2
 70
     0
 43
0.0102425219125915
 10
3.03237572890189
 20
2.091517586319931
 10
1.740704366453025
 20
2.091517586319932
  0
LWPOLYLINE
  5
A5
330
1F
100
AcDbEntity
  8
PROFILEEDGES
100
AcDbPolyline
 90
        2
 70
     0
 43
0.0102425219125915
 10
-1.198745154108614
 20
1.942022322581954
 10
-1.181978883793999
 20
1.989416857316245
  0
LWPOLYLINE
  5
A6
330
1F
100
AcDbEntity
  8
PROFILEEDGES
100
AcDbPolyline
 90
        2
 70
     0
 43
0.0102425219125915
 10
-1.5874040831675
 20
2.198826738142098
 10
-1.63283157075862
 20
2.170974032058936
  0
LWPOLYLINE
  5
A7
330
1F
100
AcDbEntity
  8
PROFILEEDGES
100
AcDbPolyline
 90
        2
 70
     0
 43
0.0102425219125915
 10
1.122227573869709
 20
2.465531081577431
 10
1.073931929545114
 20
2.481610781476699
  0
LWPOLYLINE
  5
A8
330
1F
100
AcDbEntity
  8
PROFILEEDGES
100
AcDbPolyline
 90
        2
 70
     0
 43
0.0102425219125915
 10
1.057109414973571
 20
2.484127880932284
 10
1.02312774630604
 20
2.484769245683184
  0
LWPOLYLINE
  5
A9
330
1F
100
AcDbEntity
  8
PROFILEEDGES
100
AcDbPolyline
 90
        2
 70
     0
 43
0.0102425219125915
 10
-1.63283157075862
 20
2.170974032058936
 10
-1.680450707058294
 20
2.147060352898465
  0
LWPOLYLINE
  5
AA
330
1F
100
AcDbEntity
  8
PROFILEEDGES
100
AcDbPolyline
 90
        2
 70
     0
 43
0.0102425219125915
 10
2.574470582821212
 20
0.4541397347285745
 10
2.575349164671759
 20
0.4574118138359049
  0
LWPOLYLINE
  5
AB
330
1F
100
AcDbEntity
  8
PROFILEEDGES
100
AcDbPolyline
 90
        2
 70
     0
 43
0.0102425219125915
 10
3.269198142549158
 20
1.756758940413688
 10
3.255174474365103
 20
1.775312599146905
  0
LWPOLYLINE
  5
AC
330
1F
100
AcDbEntity
  8
PROFILEEDGES
100
AcDbPolyline
 90
        2
 70
     0
 43
0.0102425219125915
 10
2.846808128381312
 20
1.02953905843982
 10
2.889967673318566
 20
1.157900092082206
  0
LWPOLYLINE
  5
AD
330
1F
100
AcDbEntity
  8
PROFILEEDGES
100
AcDbPolyline
 90
        2
 70
     0
 43
0.0102425219125915
 10
3.297529628808079
 20
1.638455153362465
 10
3.298312693042054
 20
1.669437854220993
  0
LWPOLYLINE
  5
AE
330
1F
100
AcDbEntity
  8
PROFILEEDGES
100
AcDbPolyline
 90
        2
 70
     0
 43
0.0102425219125915
 10
3.232961822594218
 20
1.796925881628422
 10
3.20735078618843
 20
1.814378872543315
  0
LWPOLYLINE
  5
AF
330
1F
100
AcDbEntity
  8
PROFILEEDGES
100
AcDbPolyline
 90
        2
 70
     0
 43
0.0102425219125915
 10
2.889967673318566
 20
1.157900092082206
 10
2.927537034727431
 20
1.288007100648274
  0
LWPOLYLINE
  5
B0
330
1F
100
AcDbEntity
  8
PROFILEEDGES
100
AcDbPolyline
 90
        2
 70
     0
 43
0.0102425219125915
 10
3.255174474365103
 20
1.775312599146905
 10
3.232961822594218
 20
1.796925881628422
  0
LWPOLYLINE
  5
B1
330
1F
100
AcDbEntity
  8
PROFILEEDGES
100
AcDbPolyline
 90
        2
 70
     0
 43
0.0102425219125915
 10
2.684649252427819
 20
0.6573129140546703
 10
2.744053099949503
 20
0.7790110682938742
  0
LWPOLYLINE
  5
B2
330
1F
100
AcDbEntity
  8
PROFILEEDGES
100
AcDbPolyline
 90
        2
 70
     0
 43
0.0102425219125915
 10
3.028095758717804
 20
1.906423143426709
 10
3.030274735648198
 20
2.000656631900087
  0
LWPOLYLINE
  5
B3
330
1F
100
AcDbEntity
  8
PROFILEEDGES
100
AcDbPolyline
 90
        2
 70
     0
 43
0.0102425219125915
 10
3.295376277257113
 20
1.692509038154041
 10
3.289470405002252
 20
1.715003924957855
  0
LWPOLYLINE
  5
B4
330
1F
100
AcDbEntity
  8
PROFILEEDGES
100
AcDbPolyline
 90
        2
 70
     0
 43
0.0102425219125915
 10
2.927537034727431
 20
1.288007100648274
 10
2.964617393998623
 20
1.440367386009256
  0
LWPOLYLINE
  5
B5
330
1F
100
AcDbEntity
  8
PROFILEEDGES
100
AcDbPolyline
 90
        2
 70
     0
 43
0.0102425219125915
 10
0.3490225676532548
 20
-1.007805596274208
 10
0.419114754500518
 20
-0.9961167188287714
  0
LWPOLYLINE
  5
B6
330
1F
100
AcDbEntity
  8
PROFILEEDGES
100
AcDbPolyline
 90
        2
 70
     0
 43
0.0102425219125915
 10
3.293431983131097
 20
1.61556178838857
 10
3.297529628808079
 20
1.638455153362465
  0
LWPOLYLINE
  5
B7
330
1F
100
AcDbEntity
  8
PROFILEEDGES
100
AcDbPolyline
 90
        2
 70
     0
 43
0.0102425219125915
 10
3.272662308184155
 20
1.565610918385282
 10
3.283419153733491
 20
1.586231084232701
  0
LWPOLYLINE
  5
B8
330
1F
100
AcDbEntity
  8
PROFILEEDGES
100
AcDbPolyline
 90
        2
 70
     0
 43
0.0102425219125915
 10
-1.397138097243072
 20
2.399700802054437
 10
-1.433826774212345
 20
2.345250184992612
  0
LWPOLYLINE
  5
B9
330
1F
100
AcDbEntity
  8
PROFILEEDGES
100
AcDbPolyline
 90
        2
 70
     0
 43
0.0102425219125915
 10
-3.231418456706501
 20
1.886762021007007
 10
-3.243284267791639
 20
1.866328797853344
  0
LWPOLYLINE
  5
BA
330
1F
100
AcDbEntity
  8
PROFILEEDGES
100
AcDbPolyline
 90
        2
 70
     0
 43
0.0102425219125915
 10
3.289470405002252
 20
1.715003924957855
 10
3.269198142549158
 20
1.756758940413688
  0
LWPOLYLINE
  5
BB
330
1F
100
AcDbEntity
  8
PROFILEEDGES
100
AcDbPolyline
 90
        2
 70
     0
 43
0.0102425219125915
 10
-3.266454198317291
 20
1.846796064777144
 10
-3.285298802809478
 20
1.839319689918197
  0
LWPOLYLINE
  5
BC
330
1F
100
AcDbEntity
  8
PROFILEEDGES
100
AcDbPolyline
 90
        2
 70
     0
 43
0.0102425219125915
 10
-3.247750166921191
 20
1.861234562515719
 10
-3.266454198317291
 20
1.846796064777144
  0
LWPOLYLINE
  5
BD
330
1F
100
AcDbEntity
  8
PROFILEEDGES
100
AcDbPolyline
 90
        2
 70
     0
 43
0.0102425219125915
 10
-3.243284267791639
 20
1.866328797853344
 10
-3.247750166921191
 20
1.861234562515719
  0
LWPOLYLINE
  5
BE
330
1F
100
AcDbEntity
  8
PROFILEEDGES
100
AcDbPolyline
 90
        2
 70
     0
 43
0.0102425219125915
 10
3.298312693042054
 20
1.669437854220993
 10
3.295376277257113
 20
1.692509038154041
  0
LWPOLYLINE
  5
BF
330
1F
100
AcDbEntity
  8
PROFILEEDGES
100
AcDbPolyline
 90
        2
 70
     0
 43
0.0102425219125915
 10
3.283419153733491
 20
1.586231084232701
 10
3.293431983131097
 20
1.61556178838857
  0
LWPOLYLINE
  5
C0
330
1F
100
AcDbEntity
  8
PROFILEEDGES
100
AcDbPolyline
 90
        2
 70
     0
 43
0.0102425219125915
 10
-0.373088961599406
 20
0.4548618238802726
 10
-0.4216647383678875
 20
0.46781362220666
  0
LWPOLYLINE
  5
C1
330
1F
100
AcDbEntity
  8
PROFILEEDGES
100
AcDbPolyline
 90
        2
 70
     0
 43
0.0102425219125915
 10
-1.253855965357153
 20
1.495796964775366
 10
-1.256410085398407
 20
1.546004763650588
  0
LWPOLYLINE
  5
C2
330
1F
100
AcDbEntity
  8
PROFILEEDGES
100
AcDbPolyline
 90
        2
 70
     0
 43
0.0102425219125915
 10
0.661186641507236
 20
0.7067084377266983
 10
0.6225694398297779
 20
0.6745205027911361
  0
LWPOLYLINE
  5
C3
330
1F
100
AcDbEntity
  8
PROFILEEDGES
100
AcDbPolyline
 90
        2
 70
     0
 43
0.0102425219125915
 10
-1.058805688247932
 20
0.9320705396044673
 10
-1.086017395655966
 20
0.9743419659480095
  0
LWPOLYLINE
  5
C4
330
1F
100
AcDbEntity
  8
PROFILEEDGES
100
AcDbPolyline
 90
        2
 70
     0
 43
0.0102425219125915
 10
-0.0740524775343876
 20
0.4222676387044144
 10
-0.1243252313925782
 20
0.4222676387044144
  0
LWPOLYLINE
  5
C5
330
1F
100
AcDbEntity
  8
PROFILEEDGES
100
AcDbPolyline
 90
        2
 70
     0
 43
0.0102425219125915
 10
0.4988557287144588
 20
0.588424888095024
 10
0.4552563672046701
 20
0.5633958182996412
  0
LWPOLYLINE
  5
C6
330
1F
100
AcDbEntity
  8
PROFILEEDGES
100
AcDbPolyline
 90
        2
 70
     0
 43
0.0102425219125915
 10
0.8876396867289995
 20
0.9743419659480095
 10
0.8604279793209657
 20
0.9320705396044673
  0
LWPOLYLINE
  5
C7
330
1F
100
AcDbEntity
  8
PROFILEEDGES
100
AcDbPolyline
 90
        2
 70
     0
 43
0.0102425219125915
 10
0.0262561228387681
 20
0.428811045994415
 10
-0.0238271211019909
 20
0.4244501261321334
  0
LWPOLYLINE
  5
C8
330
1F
100
AcDbEntity
  8
PROFILEEDGES
100
AcDbPolyline
 90
        2
 70
     0
 43
0.0102425219125915
 10
0.6983701027340516
 20
0.7405423995138847
 10
0.661186641507236
 20
0.7067084377266983
  0
LWPOLYLINE
  5
C9
330
1F
100
AcDbEntity
  8
PROFILEEDGES
100
AcDbPolyline
 90
        2
 70
     0
 43
0.0102425219125915
 10
0.5825911872086302
 20
0.6440395697894754
 10
0.5413273515719808
 20
0.6153228591807007
  0
LWPOLYLINE
  5
CA
330
1F
100
AcDbEntity
  8
PROFILEEDGES
100
AcDbPolyline
 90
        2
 70
     0
 43
0.0102425219125915
 10
0.0761028302053508
 20
0.4353422883049465
 10
0.0262561228387681
 20
0.428811045994415
  0
LWPOLYLINE
  5
CB
330
1F
100
AcDbEntity
  8
PROFILEEDGES
100
AcDbPolyline
 90
        2
 70
     0
 43
0.0102425219125915
 10
-0.0238271211019909
 20
0.4244501261321334
 10
-0.0740524775343876
 20
0.4222676387044144
  0
LWPOLYLINE
  5
CC
330
1F
100
AcDbEntity
  8
PROFILEEDGES
100
AcDbPolyline
 90
        2
 70
     0
 43
0.0102425219125915
 10
0.7681579617120833
 20
0.8128908364852343
 10
0.7340496120546489
 20
0.775958859926579
  0
LWPOLYLINE
  5
CD
330
1F
100
AcDbEntity
  8
PROFILEEDGES
100
AcDbPolyline
 90
        2
 70
     0
 43
0.0102425219125915
 10
0.7340496120546489
 20
0.775958859926579
 10
0.6983701027340516
 20
0.7405423995138847
  0
LWPOLYLINE
  5
CE
330
1F
100
AcDbEntity
  8
PROFILEEDGES
100
AcDbPolyline
 90
        2
 70
     0
 43
0.0102425219125915
 10
-0.2246338317657339
 20
0.428811045994415
 10
-0.2744805391323166
 20
0.4353422883049465
  0
LWPOLYLINE
  5
CF
330
1F
100
AcDbEntity
  8
PROFILEEDGES
100
AcDbPolyline
 90
        2
 70
     0
 43
0.0102425219125915
 10
0.5413273515719808
 20
0.6153228591807007
 10
0.4988557287144588
 20
0.588424888095024
  0
LWPOLYLINE
  5
D0
330
1F
100
AcDbEntity
  8
PROFILEEDGES
100
AcDbPolyline
 90
        2
 70
     0
 43
0.0102425219125915
 10
-0.5169015466641511
 20
0.4999784286627378
 10
-0.5633830321060649
 20
0.5191309122649459
  0
LWPOLYLINE
  5
D1
330
1F
100
AcDbEntity
  8
PROFILEEDGES
100
AcDbPolyline
 90
        2
 70
     0
 43
0.0102425219125915
 10
-0.6536340761316359
 20
0.5633958182996412
 10
-0.6972334376414246
 20
0.588424888095024
  0
LWPOLYLINE
  5
D2
330
1F
100
AcDbEntity
  8
PROFILEEDGES
100
AcDbPolyline
 90
        2
 70
     0
 43
0.0102425219125915
 10
-0.7397050604989466
 20
0.6153228591807007
 10
-0.7809688961355961
 20
0.6440395697894754
  0
LWPOLYLINE
  5
D3
330
1F
100
AcDbEntity
  8
PROFILEEDGES
100
AcDbPolyline
 90
        2
 70
     0
 43
0.0102425219125915
 10
-0.9324273209816147
 20
0.775958859926579
 10
-0.9665356706390491
 20
0.8128908364852343
  0
LWPOLYLINE
  5
D4
330
1F
100
AcDbEntity
  8
PROFILEEDGES
100
AcDbPolyline
 90
        2
 70
     0
 43
0.0102425219125915
 10
0.3185238377371853
 20
0.4999784286627378
 10
0.2712546698746459
 20
0.4828618519948922
  0
LWPOLYLINE
  5
D5
330
1F
100
AcDbEntity
  8
PROFILEEDGES
100
AcDbPolyline
 90
        2
 70
     0
 43
0.0102425219125915
 10
0.8604279793209657
 20
0.9320705396044673
 10
0.831406768763133
 20
0.8910204171256515
  0
LWPOLYLINE
  5
D6
330
1F
100
AcDbEntity
  8
PROFILEEDGES
100
AcDbPolyline
 90
        2
 70
     0
 43
0.0102425219125915
 10
-0.5633830321060649
 20
0.5191309122649459
 10
-0.6089892022196959
 20
0.5402834086028365
  0
LWPOLYLINE
  5
D7
330
1F
100
AcDbEntity
  8
PROFILEEDGES
100
AcDbPolyline
 90
        2
 70
     0
 43
0.0102425219125915
 10
-0.9665356706390491
 20
0.8128908364852343
 10
-0.9990084312976135
 20
0.8512688686589316
  0
LWPOLYLINE
  5
D8
330
1F
100
AcDbEntity
  8
PROFILEEDGES
100
AcDbPolyline
 90
        2
 70
     0
 43
0.0102425219125915
 10
-0.4216647383678875
 20
0.46781362220666
 10
-0.4696323788016117
 20
0.4828618519948922
  0
LWPOLYLINE
  5
D9
330
1F
100
AcDbEntity
  8
PROFILEEDGES
100
AcDbPolyline
 90
        2
 70
     0
 43
0.0102425219125915
 10
0.9129905277405883
 20
1.017754947957537
 10
0.8876396867289995
 20
0.9743419659480095
  0
LWPOLYLINE
  5
DA
330
1F
100
AcDbEntity
  8
PROFILEEDGES
100
AcDbPolyline
 90
        2
 70
     0
 43
0.0102425219125915
 10
0.1256189899237818
 20
0.4440312375294635
 10
0.0761028302053508
 20
0.4353422883049465
  0
LWPOLYLINE
  5
DB
330
1F
100
AcDbEntity
  8
PROFILEEDGES
100
AcDbPolyline
 90
        2
 70
     0
 43
0.0102425219125915
 10
-1.029784477690099
 20
0.8910204171256515
 10
-1.058805688247932
 20
0.9320705396044673
  0
LWPOLYLINE
  5
DC
330
1F
100
AcDbEntity
  8
PROFILEEDGES
100
AcDbPolyline
 90
        2
 70
     0
 43
0.0102425219125915
 10
-1.134810527566875
 20
1.062227484660331
 10
-1.156299963799075
 20
1.107675923049426
  0
LWPOLYLINE
  5
DD
330
1F
100
AcDbEntity
  8
PROFILEEDGES
100
AcDbPolyline
 90
        2
 70
     0
 43
0.0102425219125915
 10
-1.156299963799075
 20
1.107675923049426
 10
-1.175795995432587
 20
1.154014357343879
  0
LWPOLYLINE
  5
DE
330
1F
100
AcDbEntity
  8
PROFILEEDGES
100
AcDbPolyline
 90
        2
 70
     0
 43
0.0102425219125915
 10
0.2232870294409217
 20
0.46781362220666
 10
0.1747112526724401
 20
0.4548618238802726
  0
LWPOLYLINE
  5
DF
330
1F
100
AcDbEntity
  8
PROFILEEDGES
100
AcDbPolyline
 90
        2
 70
     0
 43
0.0102425219125915
 10
-0.6972334376414246
 20
0.588424888095024
 10
-0.7397050604989466
 20
0.6153228591807007
  0
LWPOLYLINE
  5
E0
330
1F
100
AcDbEntity
  8
PROFILEEDGES
100
AcDbPolyline
 90
        2
 70
     0
 43
0.0102425219125915
 10
-0.3239966988507477
 20
0.4440312375294635
 10
-0.373088961599406
 20
0.4548618238802726
  0
LWPOLYLINE
  5
E1
330
1F
100
AcDbEntity
  8
PROFILEEDGES
100
AcDbPolyline
 90
        2
 70
     0
 43
0.0102425219125915
 10
-1.111368236667554
 20
1.017754947957537
 10
-1.134810527566875
 20
1.062227484660331
  0
LWPOLYLINE
  5
E2
330
1F
100
AcDbEntity
  8
PROFILEEDGES
100
AcDbPolyline
 90
        2
 70
     0
 43
0.0102425219125915
 10
0.2712546698746459
 20
0.4828618519948922
 10
0.2232870294409217
 20
0.46781362220666
  0
LWPOLYLINE
  5
E3
330
1F
100
AcDbEntity
  8
PROFILEEDGES
100
AcDbPolyline
 90
        2
 70
     0
 43
0.0102425219125915
 10
-1.175795995432587
 20
1.154014357343879
 10
-1.193261977344073
 20
1.201155530098362
  0
LWPOLYLINE
  5
E4
330
1F
100
AcDbEntity
  8
PROFILEEDGES
100
AcDbPolyline
 90
        2
 70
     0
 43
0.0102425219125915
 10
-0.8209471487567437
 20
0.6745205027911361
 10
-0.8595643504342014
 20
0.7067084377266983
  0
LWPOLYLINE
  5
E5
330
1F
100
AcDbEntity
  8
PROFILEEDGES
100
AcDbPolyline
 90
        2
 70
     0
 43
0.0102425219125915
 10
-1.193261977344073
 20
1.201155530098362
 10
-1.208664868848556
 20
1.249010531833298
  0
LWPOLYLINE
  5
E6
330
1F
100
AcDbEntity
  8
PROFILEEDGES
100
AcDbPolyline
 90
        2
 70
     0
 43
0.0102425219125915
 10
0.831406768763133
 20
0.8910204171256515
 10
0.8006307223706473
 20
0.8512688686589316
  0
LWPOLYLINE
  5
E7
330
1F
100
AcDbEntity
  8
PROFILEEDGES
100
AcDbPolyline
 90
        2
 70
     0
 43
0.0102425219125915
 10
0.3650053231790991
 20
0.5191309122649459
 10
0.3185238377371853
 20
0.4999784286627378
  0
LWPOLYLINE
  5
E8
330
1F
100
AcDbEntity
  8
PROFILEEDGES
100
AcDbPolyline
 90
        2
 70
     0
 43
0.0102425219125915
 10
-1.208664868848556
 20
1.249010531833298
 10
-1.221975609161748
 20
1.297489101404725
  0
LWPOLYLINE
  5
E9
330
1F
100
AcDbEntity
  8
PROFILEEDGES
100
AcDbPolyline
 90
        2
 70
     0
 43
0.0102425219125915
 10
-1.221975609161748
 20
1.297489101404725
 10
-1.233169192492519
 20
1.346499851281694
  0
LWPOLYLINE
  5
EA
330
1F
100
AcDbEntity
  8
PROFILEEDGES
100
AcDbPolyline
 90
        2
 70
     0
 43
0.0102425219125915
 10
-0.6089892022196959
 20
0.5402834086028365
 10
-0.6536340761316359
 20
0.5633958182996412
  0
LWPOLYLINE
  5
EB
330
1F
100
AcDbEntity
  8
PROFILEEDGES
100
AcDbPolyline
 90
        2
 70
     0
 43
0.0102425219125915
 10
-1.24222451785796
 20
1.395950342638731
 10
-1.249124389083393
 20
1.445747385725706
  0
LWPOLYLINE
  5
EC
330
1F
100
AcDbEntity
  8
PROFILEEDGES
100
AcDbPolyline
 90
        2
 70
     0
 43
0.0102425219125915
 10
-1.256410085398407
 20
1.546004763650588
 10
-1.256782168566737
 20
1.596276165844394
  0
LWPOLYLINE
  5
ED
330
1F
100
AcDbEntity
  8
PROFILEEDGES
100
AcDbPolyline
 90
        2
 70
     0
 43
0.0102425219125915
 10
-1.256782168566737
 20
1.596276165844394
 10
-1.254971388845019
 20
1.646516292026169
  0
LWPOLYLINE
  5
EE
330
1F
100
AcDbEntity
  8
PROFILEEDGES
100
AcDbPolyline
 90
        2
 70
     0
 43
0.0102425219125915
 10
-1.254971388845019
 20
1.646516292026169
 10
-1.250981200486682
 20
1.696630450596466
  0
LWPOLYLINE
  5
EF
330
1F
100
AcDbEntity
  8
PROFILEEDGES
100
AcDbPolyline
 90
        2
 70
     0
 43
0.0102425219125915
 10
0.4552563672046701
 20
0.5633958182996412
 10
0.4106114932927301
 20
0.5402834086028365
  0
LWPOLYLINE
  5
F0
330
1F
100
AcDbEntity
  8
PROFILEEDGES
100
AcDbPolyline
 90
        2
 70
     0
 43
0.0102425219125915
 10
-1.250981200486682
 20
1.696630450596466
 10
-1.244819112738312
 20
1.746524137687002
  0
LWPOLYLINE
  5
F1
330
1F
100
AcDbEntity
  8
PROFILEEDGES
100
AcDbPolyline
 90
        2
 70
     0
 43
0.0102425219125915
 10
0.8006307223706473
 20
0.8512688686589316
 10
0.7681579617120833
 20
0.8128908364852343
  0
LWPOLYLINE
  5
F2
330
1F
100
AcDbEntity
  8
PROFILEEDGES
100
AcDbPolyline
 90
        2
 70
     0
 43
0.0102425219125915
 10
0.4106114932927301
 20
0.5402834086028365
 10
0.3650053231790991
 20
0.5191309122649459
  0
LWPOLYLINE
  5
F3
330
1F
100
AcDbEntity
  8
PROFILEEDGES
100
AcDbPolyline
 90
        2
 70
     0
 43
0.0102425219125915
 10
-0.1745505878249749
 20
0.4244501261321334
 10
-0.2246338317657339
 20
0.428811045994415
  0
LWPOLYLINE
  5
F4
330
1F
100
AcDbEntity
  8
PROFILEEDGES
100
AcDbPolyline
 90
        2
 70
     0
 43
0.0102425219125915
 10
-0.1243252313925782
 20
0.4222676387044144
 10
-0.1745505878249749
 20
0.4244501261321334
  0
LWPOLYLINE
  5
F5
330
1F
100
AcDbEntity
  8
PROFILEEDGES
100
AcDbPolyline
 90
        2
 70
     0
 43
0.0102425219125915
 10
-0.9990084312976135
 20
0.8512688686589316
 10
-1.029784477690099
 20
0.8910204171256515
  0
LWPOLYLINE
  5
F6
330
1F
100
AcDbEntity
  8
PROFILEEDGES
100
AcDbPolyline
 90
        2
 70
     0
 43
0.0102425219125915
 10
-1.249124389083393
 20
1.445747385725706
 10
-1.253855965357153
 20
1.495796964775366
  0
LWPOLYLINE
  5
F7
330
1F
100
AcDbEntity
  8
PROFILEEDGES
100
AcDbPolyline
 90
        2
 70
     0
 43
0.0102425219125915
 10
0.6225694398297779
 20
0.6745205027911361
 10
0.5825911872086302
 20
0.6440395697894754
  0
LWPOLYLINE
  5
F8
330
1F
100
AcDbEntity
  8
PROFILEEDGES
100
AcDbPolyline
 90
        2
 70
     0
 43
0.0102425219125915
 10
-1.244819112738312
 20
1.746524137687002
 10
-1.236496764932117
 20
1.796103243664939
  0
LWPOLYLINE
  5
F9
330
1F
100
AcDbEntity
  8
PROFILEEDGES
100
AcDbPolyline
 90
        2
 70
     0
 43
0.0102425219125915
 10
-0.2744805391323166
 20
0.4353422883049465
 10
-0.3239966988507477
 20
0.4440312375294635
  0
LWPOLYLINE
  5
FA
330
1F
100
AcDbEntity
  8
PROFILEEDGES
100
AcDbPolyline
 90
        2
 70
     0
 43
0.0102425219125915
 10
-0.4696323788016117
 20
0.4828618519948922
 10
-0.5169015466641511
 20
0.4999784286627378
  0
LWPOLYLINE
  5
FB
330
1F
100
AcDbEntity
  8
PROFILEEDGES
100
AcDbPolyline
 90
        2
 70
     0
 43
0.0102425219125915
 10
-0.7809688961355961
 20
0.6440395697894754
 10
-0.8209471487567437
 20
0.6745205027911361
  0
LWPOLYLINE
  5
FC
330
1F
100
AcDbEntity
  8
PROFILEEDGES
100
AcDbPolyline
 90
        2
 70
     0
 43
0.0102425219125915
 10
-1.086017395655966
 20
0.9743419659480095
 10
-1.111368236667554
 20
1.017754947957537
  0
LWPOLYLINE
  5
FD
330
1F
100
AcDbEntity
  8
PROFILEEDGES
100
AcDbPolyline
 90
        2
 70
     0
 43
0.0102425219125915
 10
-1.233169192492519
 20
1.346499851281694
 10
-1.24222451785796
 20
1.395950342638731
  0
LWPOLYLINE
  5
FE
330
1F
100
AcDbEntity
  8
PROFILEEDGES
100
AcDbPolyline
 90
        2
 70
     0
 43
0.0102425219125915
 10
0.1747112526724401
 20
0.4548618238802726
 10
0.1256189899237818
 20
0.4440312375294635
  0
LWPOLYLINE
  5
FF
330
1F
100
AcDbEntity
  8
PROFILEEDGES
100
AcDbPolyline
 90
        2
 70
     0
 43
0.0102425219125915
 10
2.808971738163855
 20
0.9299237210980307
 10
2.846808128381312
 20
1.02953905843982
  0
LWPOLYLINE
  5
100
330
1F
100
AcDbEntity
  8
PROFILEEDGES
100
AcDbPolyline
 90
        2
 70
     0
 43
0.0102425219125915
 10
-0.5474002765802206
 20
-1.007805596274208
 10
-0.4256675798067215
 20
-1.023023535035281
  0
LWPOLYLINE
  5
101
330
1F
100
AcDbEntity
  8
PROFILEEDGES
100
AcDbPolyline
 90
        2
 70
     0
 43
0.0102425219125915
 10
2.744053099949503
 20
0.7790110682938742
 10
2.808971738163855
 20
0.9299237210980307
  0
LWPOLYLINE
  5
102
330
1F
100
AcDbEntity
  8
PROFILEEDGES
100
AcDbPolyline
 90
        2
 70
     0
 43
0.0102425219125915
 10
2.583484982792761
 20
0.4759811293482539
 10
2.620039694802941
 20
0.5382966121411457
  0
LWPOLYLINE
  5
103
330
1F
100
AcDbEntity
  8
PROFILEEDGES
100
AcDbPolyline
 90
        2
 70
     0
 43
0.0102425219125915
 10
-3.088345382245532
 20
1.157900092082206
 10
-3.045185837308279
 20
1.02953905843982
  0
LWPOLYLINE
  5
104
330
1F
100
AcDbEntity
  8
PROFILEEDGES
100
AcDbPolyline
 90
        2
 70
     0
 43
0.0102425219125915
 10
-2.883026961354785
 20
0.6573129140546703
 10
-2.818417403729907
 20
0.5382966121411457
  0
LWPOLYLINE
  5
105
330
1F
100
AcDbEntity
  8
PROFILEEDGES
100
AcDbPolyline
 90
        2
 70
     0
 43
0.0102425219125915
 10
-1.236496764932117
 20
1.796103243664939
 10
-1.226029851393462
 20
1.845274278410283
  0
LWPOLYLINE
  5
106
330
1F
100
AcDbEntity
  8
PROFILEEDGES
100
AcDbPolyline
 90
        2
 70
     0
 43
0.0102425219125915
 10
-2.942430808876469
 20
0.7790110682938742
 10
-2.883026961354785
 20
0.6573129140546703
  0
LWPOLYLINE
  5
107
330
1F
100
AcDbEntity
  8
PROFILEEDGES
100
AcDbPolyline
 90
        2
 70
     0
 43
0.0102425219125915
 10
-2.818417403729907
 20
0.5382966121411457
 10
-2.775902452519585
 20
0.4638277141188771
  0
LWPOLYLINE
  5
108
330
1F
100
AcDbEntity
  8
PROFILEEDGES
100
AcDbPolyline
 90
        2
 70
     0
 43
0.0102425219125915
 10
-3.045185837308279
 20
1.02953905843982
 10
-2.996517509075626
 20
0.9031639201495345
  0
LWPOLYLINE
  5
109
330
1F
100
AcDbEntity
  8
PROFILEEDGES
100
AcDbPolyline
 90
        2
 70
     0
 43
0.0102425219125915
 10
-2.996517509075626
 20
0.9031639201495345
 10
-2.942430808876469
 20
0.7790110682938742
  0
LWPOLYLINE
  5
10A
330
1F
100
AcDbEntity
  8
PROFILEEDGES
100
AcDbPolyline
 90
        2
 70
     0
 43
0.0102425219125915
 10
-0.8967478116610175
 20
0.7405423995138847
 10
-0.9324273209816147
 20
0.775958859926579
  0
LWPOLYLINE
  5
10B
330
1F
100
AcDbEntity
  8
PROFILEEDGES
100
AcDbPolyline
 90
        2
 70
     0
 43
0.0102425219125915
 10
-0.4256675798067215
 20
-1.023023535035281
 10
-0.2934343468429792
 20
-1.036823427671077
  0
LWPOLYLINE
  5
10C
330
1F
100
AcDbEntity
  8
PROFILEEDGES
100
AcDbPolyline
 90
        2
 70
     0
 43
0.0102425219125915
 10
-0.1594404583784796
 20
-1.045398086162558
 10
-0.0601170758506702
 20
-1.045968188163357
  0
LWPOLYLINE
  5
10D
330
1F
100
AcDbEntity
  8
PROFILEEDGES
100
AcDbPolyline
 90
        2
 70
     0
 43
0.0102425219125915
 10
0.05264545510695
 20
-1.040362685771933
 10
0.1886862046192692
 20
-1.027279175260428
  0
LWPOLYLINE
  5
10E
330
1F
100
AcDbEntity
  8
PROFILEEDGES
100
AcDbPolyline
 90
        2
 70
     0
 43
0.0102425219125915
 10
2.620039694802941
 20
0.5382966121411457
 10
2.684649252427819
 20
0.6573129140546703
  0
LWPOLYLINE
  5
10F
330
1F
100
AcDbEntity
  8
PROFILEEDGES
100
AcDbPolyline
 90
        2
 70
     0
 43
0.0102425219125915
 10
-0.8595643504342014
 20
0.7067084377266983
 10
-0.8967478116610175
 20
0.7405423995138847
  0
LWPOLYLINE
  5
110
330
1F
100
AcDbEntity
  8
PROFILEEDGES
100
AcDbPolyline
 90
        2
 70
     0
 43
0.0102425219125915
 10
0.93643281863991
 20
1.062227484660331
 10
0.9129905277405883
 20
1.017754947957537
  0
LWPOLYLINE
  5
111
330
1F
100
AcDbEntity
  8
PROFILEEDGES
100
AcDbPolyline
 90
        2
 70
     0
 43
0.0102425219125915
 10
0.9579222548721087
 20
1.107675923049426
 10
0.93643281863991
 20
1.062227484660331
  0
LWPOLYLINE
  5
112
330
1F
100
AcDbEntity
  8
PROFILEEDGES
100
AcDbPolyline
 90
        2
 70
     0
 43
0.0102425219125915
 10
0.9774182865056207
 20
1.154014357343879
 10
0.9579222548721087
 20
1.107675923049426
  0
LWPOLYLINE
  5
113
330
1F
100
AcDbEntity
  8
PROFILEEDGES
100
AcDbPolyline
 90
        2
 70
     0
 43
0.0102425219125915
 10
0.9948842684171075
 20
1.201155530098362
 10
0.9774182865056207
 20
1.154014357343879
  0
LWPOLYLINE
  5
114
330
1F
100
AcDbEntity
  8
PROFILEEDGES
100
AcDbPolyline
 90
        2
 70
     0
 43
0.0102425219125915
 10
1.01028715992159
 20
1.249010531833298
 10
0.9948842684171075
 20
1.201155530098362
  0
LWPOLYLINE
  5
115
330
1F
100
AcDbEntity
  8
PROFILEEDGES
100
AcDbPolyline
 90
        2
 70
     0
 43
0.0102425219125915
 10
1.023597900234782
 20
1.297489101404725
 10
1.01028715992159
 20
1.249010531833298
  0
LWPOLYLINE
  5
116
330
1F
100
AcDbEntity
  8
PROFILEEDGES
100
AcDbPolyline
 90
        2
 70
     0
 43
0.0102425219125915
 10
1.034791483565553
 20
1.346499851281694
 10
1.023597900234782
 20
1.297489101404725
  0
LWPOLYLINE
  5
117
330
1F
100
AcDbEntity
  8
PROFILEEDGES
100
AcDbPolyline
 90
        2
 70
     0
 43
0.0102425219125915
 10
1.043846808930994
 20
1.395950342638731
 10
1.034791483565553
 20
1.346499851281694
  0
LWPOLYLINE
  5
118
330
1F
100
AcDbEntity
  8
PROFILEEDGES
100
AcDbPolyline
 90
        2
 70
     0
 43
0.0102425219125915
 10
1.050746680156427
 20
1.445747385725706
 10
1.043846808930994
 20
1.395950342638731
  0
LWPOLYLINE
  5
119
330
1F
100
AcDbEntity
  8
PROFILEEDGES
100
AcDbPolyline
 90
        2
 70
     0
 43
0.0102425219125915
 10
1.055478256430187
 20
1.495796964775366
 10
1.050746680156427
 20
1.445747385725706
  0
LWPOLYLINE
  5
11A
330
1F
100
AcDbEntity
  8
PROFILEEDGES
100
AcDbPolyline
 90
        2
 70
     0
 43
0.0102425219125915
 10
1.058032376471441
 20
1.546004763650588
 10
1.055478256430187
 20
1.495796964775366
  0
LWPOLYLINE
  5
11B
330
1F
100
AcDbEntity
  8
PROFILEEDGES
100
AcDbPolyline
 90
        2
 70
     0
 43
0.0102425219125915
 10
1.058404459639771
 20
1.596276165844394
 10
1.058032376471441
 20
1.546004763650588
  0
LWPOLYLINE
  5
11C
330
1F
100
AcDbEntity
  8
PROFILEEDGES
100
AcDbPolyline
 90
        2
 70
     0
 43
0.0102425219125915
 10
1.056593679918053
 20
1.646516292026169
 10
1.058404459639771
 20
1.596276165844394
  0
LWPOLYLINE
  5
11D
330
1F
100
AcDbEntity
  8
PROFILEEDGES
100
AcDbPolyline
 90
        2
 70
     0
 43
0.0102425219125915
 10
1.052603491559716
 20
1.696630450596466
 10
1.056593679918053
 20
1.646516292026169
  0
LWPOLYLINE
  5
11E
330
1F
100
AcDbEntity
  8
PROFILEEDGES
100
AcDbPolyline
 90
        2
 70
     0
 43
0.0102425219125915
 10
1.046441403811346
 20
1.746524137687002
 10
1.052603491559716
 20
1.696630450596466
  0
LWPOLYLINE
  5
11F
330
1F
100
AcDbEntity
  8
PROFILEEDGES
100
AcDbPolyline
 90
        2
 70
     0
 43
0.0102425219125915
 10
1.038119056005151
 20
1.796103243664939
 10
1.046441403811346
 20
1.746524137687002
  0
LWPOLYLINE
  5
120
330
1F
100
AcDbEntity
  8
PROFILEEDGES
100
AcDbPolyline
 90
        2
 70
     0
 43
0.0102425219125915
 10
0.9439787103491244
 20
2.08180028390835
 10
0.9647931404057197
 20
2.036038817295384
  0
LWPOLYLINE
  5
121
330
1F
100
AcDbEntity
  8
PROFILEEDGES
100
AcDbPolyline
 90
        2
 70
     0
 43
0.0102425219125915
 10
0.9211973082418257
 20
2.126614971805252
 10
0.9439787103491244
 20
2.08180028390835
  0
LWPOLYLINE
  5
122
330
1F
100
AcDbEntity
  8
PROFILEEDGES
100
AcDbPolyline
 90
        2
 70
     0
 43
0.0102425219125915
 10
0.869908778597964
 20
2.21306793042663
 10
0.8964918118818281
 20
2.170398382602221
  0
LWPOLYLINE
  5
123
330
1F
100
AcDbEntity
  8
PROFILEEDGES
100
AcDbPolyline
 90
        2
 70
     0
 43
0.0102425219125915
 10
0.842828633190114
 20
2.252684978900438
 10
0.869908778597964
 20
2.21306793042663
  0
LWPOLYLINE
  5
124
330
1F
100
AcDbEntity
  8
PROFILEEDGES
100
AcDbPolyline
 90
        2
 70
     0
 43
0.0102425219125915
 10
0.8396800060966565
 20
2.295022899622499
 10
0.842828633190114
 20
2.252684978900438
  0
LWPOLYLINE
  5
125
330
1F
100
AcDbEntity
  8
PROFILEEDGES
100
AcDbPolyline
 90
        2
 70
     0
 43
0.0102425219125915
 10
0.8479638314678657
 20
2.345246505461785
 10
0.8396800060966565
 20
2.295022899622499
  0
LWPOLYLINE
  5
126
330
1F
100
AcDbEntity
  8
PROFILEEDGES
100
AcDbPolyline
 90
        2
 70
     0
 43
0.0102425219125915
 10
1.219989779339036
 20
2.366957145325287
 10
1.183003285650167
 20
2.419755878323151
  0
LWPOLYLINE
  5
127
330
1F
100
AcDbEntity
  8
PROFILEEDGES
100
AcDbPolyline
 90
        2
 70
     0
 43
0.0102425219125915
 10
1.251812464520662
 20
2.324216522481943
 10
1.219989779339036
 20
2.366957145325287
  0
LWPOLYLINE
  5
128
330
1F
100
AcDbEntity
  8
PROFILEEDGES
100
AcDbPolyline
 90
        2
 70
     0
 43
0.0102425219125915
 10
1.287133557501714
 20
2.284318355975634
 10
1.251812464520662
 20
2.324216522481943
  0
LWPOLYLINE
  5
129
330
1F
100
AcDbEntity
  8
PROFILEEDGES
100
AcDbPolyline
 90
        2
 70
     0
 43
0.0102425219125915
 10
1.325700146857183
 20
2.247548147361555
 10
1.287133557501714
 20
2.284318355975634
  0
LWPOLYLINE
  5
12A
330
1F
100
AcDbEntity
  8
PROFILEEDGES
100
AcDbPolyline
 90
        2
 70
     0
 43
0.0102425219125915
 10
1.367236643237366
 20
2.214169011253517
 10
1.325700146857183
 20
2.247548147361555
  0
LWPOLYLINE
  5
12B
330
1F
100
AcDbEntity
  8
PROFILEEDGES
100
AcDbPolyline
 90
        2
 70
     0
 43
0.0102425219125915
 10
1.389026374240534
 20
2.198826738142098
 10
1.367236643237366
 20
2.214169011253517
  0
LWPOLYLINE
  5
12C
330
1F
100
AcDbEntity
  8
PROFILEEDGES
100
AcDbPolyline
 90
        2
 70
     0
 43
0.0102425219125915
 10
1.434453861831654
 20
2.170974032058936
 10
1.389026374240534
 20
2.198826738142098
  0
LWPOLYLINE
  5
12D
330
1F
100
AcDbEntity
  8
PROFILEEDGES
100
AcDbPolyline
 90
        2
 70
     0
 43
0.0102425219125915
 10
1.482072998131328
 20
2.147060352898465
 10
1.434453861831654
 20
2.170974032058936
  0
LWPOLYLINE
  5
12E
330
1F
100
AcDbEntity
  8
PROFILEEDGES
100
AcDbPolyline
 90
        2
 70
     0
 43
0.0102425219125915
 10
1.506598347665731
 20
2.136635265863293
 10
1.482072998131328
 20
2.147060352898465
  0
LWPOLYLINE
  5
12F
330
1F
100
AcDbEntity
  8
PROFILEEDGES
100
AcDbPolyline
 90
        2
 70
     0
 43
0.0102425219125915
 10
1.556861489688292
 20
2.118941845299197
 10
1.506598347665731
 20
2.136635265863293
  0
LWPOLYLINE
  5
130
330
1F
100
AcDbEntity
  8
PROFILEEDGES
100
AcDbPolyline
 90
        2
 70
     0
 43
0.0102425219125915
 10
1.660965328991856
 20
2.096584866395592
 10
1.608440251712698
 20
2.105559792956475
  0
LWPOLYLINE
  5
131
330
1F
100
AcDbEntity
  8
PROFILEEDGES
100
AcDbPolyline
 90
        2
 70
     0
 43
0.0102425219125915
 10
1.687465610378345
 20
2.093771391497094
 10
1.660965328991856
 20
2.096584866395592
  0
LWPOLYLINE
  5
132
330
1F
100
AcDbEntity
  8
PROFILEEDGES
100
AcDbPolyline
 90
        2
 70
     0
 43
0.0102425219125915
 10
1.740704366453025
 20
2.091517586319932
 10
1.687465610378345
 20
2.093771391497094
  0
LWPOLYLINE
  5
133
330
1F
100
AcDbEntity
  8
PROFILEEDGES
100
AcDbPolyline
 90
        2
 70
     0
 43
0.0102425219125915
 10
3.03736787603218
 20
1.877571867119115
 10
3.028095758717804
 20
1.906423143426709
  0
LWPOLYLINE
  5
134
330
1F
100
AcDbEntity
  8
PROFILEEDGES
100
AcDbPolyline
 90
        2
 70
     0
 43
0.0102425219125915
 10
3.051765504696212
 20
1.858836221794889
 10
3.03736787603218
 20
1.877571867119115
  0
LWPOLYLINE
  5
135
330
1F
100
AcDbEntity
  8
PROFILEEDGES
100
AcDbPolyline
 90
        2
 70
     0
 43
0.0102425219125915
 10
3.071073279517816
 20
1.845215706286913
 10
3.051765504696212
 20
1.858836221794889
  0
LWPOLYLINE
  5
136
330
1F
100
AcDbEntity
  8
PROFILEEDGES
100
AcDbPolyline
 90
        2
 70
     0
 43
0.0102425219125915
 10
3.080432804462453
 20
1.841267457070758
 10
3.071073279517816
 20
1.845215706286913
  0
LWPOLYLINE
  5
137
330
1F
100
AcDbEntity
  8
PROFILEEDGES
100
AcDbPolyline
 90
        2
 70
     0
 43
0.0102425219125915
 10
3.141410890438399
 20
1.835949953059018
 10
3.103662208221064
 20
1.83694310723935
  0
LWPOLYLINE
  5
138
330
1F
100
AcDbEntity
  8
PROFILEEDGES
100
AcDbPolyline
 90
        2
 70
     0
 43
0.0102425219125915
 10
3.164266934456762
 20
1.831648975757608
 10
3.156713233131097
 20
1.833412822688165
  0
LWPOLYLINE
  5
139
330
1F
100
AcDbEntity
  8
PROFILEEDGES
100
AcDbPolyline
 90
        2
 70
     0
 43
0.0102425219125915
 10
3.171737433330254
 20
1.829559133659643
 10
3.164266934456762
 20
1.831648975757608
  0
LWPOLYLINE
  5
13A
330
1F
100
AcDbEntity
  8
PROFILEEDGES
100
AcDbPolyline
 90
        2
 70
     0
 43
0.0102425219125915
 10
3.179110311998131
 20
1.827147219975609
 10
3.20735078618843
 20
1.814378872543315
  0
LWPOLYLINE
  5
13B
330
1F
100
AcDbEntity
  8
PROFILEEDGES
100
AcDbPolyline
 90
        2
 70
     0
 43
0.0102425219125915
 10
3.259320179220234
 20
1.546561273915067
 10
3.272662308184155
 20
1.565610918385282
  0
LWPOLYLINE
  5
13C
330
1F
100
AcDbEntity
  8
PROFILEEDGES
100
AcDbPolyline
 90
        2
 70
     0
 43
0.0102425219125915
 10
3.237905309806633
 20
1.524157286541175
 10
3.259320179220234
 20
1.546561273915067
  0
LWPOLYLINE
  5
13D
330
1F
100
AcDbEntity
  8
PROFILEEDGES
100
AcDbPolyline
 90
        2
 70
     0
 43
0.0102425219125915
 10
3.206234311406042
 20
1.501893384162342
 10
3.237905309806633
 20
1.524157286541175
  0
LWPOLYLINE
  5
13E
330
1F
100
AcDbEntity
  8
PROFILEEDGES
100
AcDbPolyline
 90
        2
 70
     0
 43
0.0102425219125915
 10
3.192341904852308
 20
1.494995240063624
 10
3.206234311406042
 20
1.501893384162342
  0
LWPOLYLINE
  5
13F
330
1F
100
AcDbEntity
  8
PROFILEEDGES
100
AcDbPolyline
 90
        2
 70
     0
 43
0.0102425219125915
 10
3.163028509509819
 20
1.484931497974165
 10
3.192341904852308
 20
1.494995240063624
  0
LWPOLYLINE
  5
140
330
1F
100
AcDbEntity
  8
PROFILEEDGES
100
AcDbPolyline
 90
        2
 70
     0
 43
0.0102425219125915
 10
3.147828292570689
 20
1.481841593189008
 10
3.163028509509819
 20
1.484931497974165
  0
LWPOLYLINE
  5
141
330
1F
100
AcDbEntity
  8
PROFILEEDGES
100
AcDbPolyline
 90
        2
 70
     0
 43
0.0102425219125915
 10
3.124669776099847
 20
1.479702997307584
 10
3.147828292570689
 20
1.481841593189008
  0
LWPOLYLINE
  5
142
330
1F
100
AcDbEntity
  8
PROFILEEDGES
100
AcDbPolyline
 90
        2
 70
     0
 43
0.0102425219125915
 10
3.101429559026152
 20
1.480588299933826
 10
3.124669776099847
 20
1.479702997307584
  0
LWPOLYLINE
  5
143
330
1F
100
AcDbEntity
  8
PROFILEEDGES
100
AcDbPolyline
 90
        2
 70
     0
 43
0.0102425219125915
 10
3.086084864182709
 20
1.482853201342825
 10
3.101429559026152
 20
1.480588299933826
  0
LWPOLYLINE
  5
144
330
1F
100
AcDbEntity
  8
PROFILEEDGES
100
AcDbPolyline
 90
        2
 70
     0
 43
0.0102425219125915
 10
3.053751550233244
 20
1.491287474469383
 10
3.086084864182709
 20
1.482853201342825
  0
LWPOLYLINE
  5
145
330
1F
100
AcDbEntity
  8
PROFILEEDGES
100
AcDbPolyline
 90
        2
 70
     0
 43
0.0102425219125915
 10
3.023447234711283
 20
1.491207200623379
 10
3.053751550233244
 20
1.491287474469383
  0
LWPOLYLINE
  5
146
330
1F
100
AcDbEntity
  8
PROFILEEDGES
100
AcDbPolyline
 90
        2
 70
     0
 43
0.0102425219125915
 10
3.00731286749687
 20
1.486147770643679
 10
3.023447234711283
 20
1.491207200623379
  0
LWPOLYLINE
  5
147
330
1F
100
AcDbEntity
  8
PROFILEEDGES
100
AcDbPolyline
 90
        2
 70
     0
 43
0.0102425219125915
 10
2.998284049771876
 20
1.481493164147424
 10
3.00731286749687
 20
1.486147770643679
  0
LWPOLYLINE
  5
148
330
1F
100
AcDbEntity
  8
PROFILEEDGES
100
AcDbPolyline
 90
        2
 70
     0
 43
0.0102425219125915
 10
2.980078031609352
 20
1.466431530354036
 10
2.998284049771876
 20
1.481493164147424
  0
LWPOLYLINE
  5
149
330
1F
100
AcDbEntity
  8
PROFILEEDGES
100
AcDbPolyline
 90
        2
 70
     0
 43
0.0102425219125915
 10
2.575349164671759
 20
0.4574118138359049
 10
2.583484982792761
 20
0.4759811293482539
  0
LWPOLYLINE
  5
14A
330
1F
100
AcDbEntity
  8
PROFILEEDGES
100
AcDbPolyline
 90
        2
 70
     0
 43
0.0102425219125915
 10
2.572689389531042
 20
0.4441392204953685
 10
2.573139343586468
 20
0.447497205383641
  0
LWPOLYLINE
  5
14B
330
1F
100
AcDbEntity
  8
PROFILEEDGES
100
AcDbPolyline
 90
        2
 70
     0
 43
0.0102425219125915
 10
2.572689389531042
 20
0.4441392204953685
 10
2.572383913379929
 20
0.4407648654495393
  0
LWPOLYLINE
  5
14C
330
1F
100
AcDbEntity
  8
PROFILEEDGES
100
AcDbPolyline
 90
        2
 70
     0
 43
0.0102425219125915
 10
2.572383913379929
 20
0.4407648654495393
 10
2.572224116612582
 20
0.4373805981982173
  0
LWPOLYLINE
  5
14D
330
1F
100
AcDbEntity
  8
PROFILEEDGES
100
AcDbPolyline
 90
        2
 70
     0
 43
0.0102425219125915
 10
2.572341861599048
 20
0.4306069574078935
 10
2.581489926159825
 20
0.3982532183077154
  0
LWPOLYLINE
  5
14E
330
1F
100
AcDbEntity
  8
PROFILEEDGES
100
AcDbPolyline
 90
        2
 70
     0
 43
0.0102425219125915
 10
2.595625932672805
 20
0.379319403966087
 10
2.581489926159825
 20
0.3982532183077154
  0
LWPOLYLINE
  5
14F
330
1F
100
AcDbEntity
  8
PROFILEEDGES
100
AcDbPolyline
 90
        2
 70
     0
 43
0.0102425219125915
 10
2.614742972631128
 20
0.365432253884963
 10
2.595625932672805
 20
0.379319403966087
  0
LWPOLYLINE
  5
150
330
1F
100
AcDbEntity
  8
PROFILEEDGES
100
AcDbPolyline
 90
        2
 70
     0
 43
0.0102425219125915
 10
2.631557076846495
 20
0.35680488048245
 10
2.614742972631128
 20
0.365432253884963
  0
LWPOLYLINE
  5
151
330
1F
100
AcDbEntity
  8
PROFILEEDGES
100
AcDbPolyline
 90
        2
 70
     0
 43
0.0102425219125915
 10
2.662842099972571
 20
0.3340018517449845
 10
2.631557076846495
 20
0.35680488048245
  0
LWPOLYLINE
  5
152
330
1F
100
AcDbEntity
  8
PROFILEEDGES
100
AcDbPolyline
 90
        2
 70
     0
 43
0.0102425219125915
 10
2.683870393371932
 20
0.3112345670212671
 10
2.662842099972571
 20
0.3340018517449845
  0
LWPOLYLINE
  5
153
330
1F
100
AcDbEntity
  8
PROFILEEDGES
100
AcDbPolyline
 90
        2
 70
     0
 43
0.0102425219125915
 10
2.700651757272184
 20
0.2851780821080041
 10
2.683870393371932
 20
0.3112345670212671
  0
LWPOLYLINE
  5
154
330
1F
100
AcDbEntity
  8
PROFILEEDGES
100
AcDbPolyline
 90
        2
 70
     0
 43
0.0102425219125915
 10
2.71268096956303
 20
0.2566154612391713
 10
2.700651757272184
 20
0.2851780821080041
  0
LWPOLYLINE
  5
155
330
1F
100
AcDbEntity
  8
PROFILEEDGES
100
AcDbPolyline
 90
        2
 70
     0
 43
0.0102425219125915
 10
2.718362165160041
 20
0.234062640597946
 10
2.71268096956303
 20
0.2566154612391713
  0
LWPOLYLINE
  5
156
330
1F
100
AcDbEntity
  8
PROFILEEDGES
100
AcDbPolyline
 90
        2
 70
     0
 43
0.0102425219125915
 10
2.721299482054572
 20
0.2032095493354893
 10
2.718362165160041
 20
0.234062640597946
  0
LWPOLYLINE
  5
157
330
1F
100
AcDbEntity
  8
PROFILEEDGES
100
AcDbPolyline
 90
        2
 70
     0
 43
0.0102425219125915
 10
2.717422307857353
 20
0.1646908689732385
 10
2.721299482054572
 20
0.2032095493354893
  0
LWPOLYLINE
  5
158
330
1F
100
AcDbEntity
  8
PROFILEEDGES
100
AcDbPolyline
 90
        2
 70
     0
 43
0.0102425219125915
 10
2.708394691611812
 20
0.1350421106782242
 10
2.717422307857353
 20
0.1646908689732385
  0
LWPOLYLINE
  5
159
330
1F
100
AcDbEntity
  8
PROFILEEDGES
100
AcDbPolyline
 90
        2
 70
     0
 43
0.0102425219125915
 10
2.701989003904197
 20
0.1209157160008747
 10
2.708394691611812
 20
0.1350421106782242
  0
LWPOLYLINE
  5
15A
330
1F
100
AcDbEntity
  8
PROFILEEDGES
100
AcDbPolyline
 90
        2
 70
     0
 43
0.0102425219125915
 10
2.690147522777997
 20
0.1008986177467683
 10
2.701989003904197
 20
0.1209157160008747
  0
LWPOLYLINE
  5
15B
330
1F
100
AcDbEntity
  8
PROFILEEDGES
100
AcDbPolyline
 90
        2
 70
     0
 43
0.0102425219125915
 10
2.675808466237335
 20
0.0825877705019042
 10
2.690147522777997
 20
0.1008986177467683
  0
LWPOLYLINE
  5
15C
330
1F
100
AcDbEntity
  8
PROFILEEDGES
100
AcDbPolyline
 90
        2
 70
     0
 43
0.0102425219125915
 10
2.653228762493333
 20
0.0613580791091115
 10
2.675808466237335
 20
0.0825877705019042
  0
LWPOLYLINE
  5
15D
330
1F
100
AcDbEntity
  8
PROFILEEDGES
100
AcDbPolyline
 90
        2
 70
     0
 43
0.0102425219125915
 10
2.640644767064722
 20
0.0522897627470762
 10
2.653228762493333
 20
0.0613580791091115
  0
LWPOLYLINE
  5
15E
330
1F
100
AcDbEntity
  8
PROFILEEDGES
100
AcDbPolyline
 90
        2
 70
     0
 43
0.0102425219125915
 10
2.61336157162919
 20
0.0375869583017945
 10
2.640644767064722
 20
0.0522897627470762
  0
LWPOLYLINE
  5
15F
330
1F
100
AcDbEntity
  8
PROFILEEDGES
100
AcDbPolyline
 90
        2
 70
     0
 43
0.0102425219125915
 10
2.591454696379282
 20
0.0297777924072786
 10
2.61336157162919
 20
0.0375869583017945
  0
LWPOLYLINE
  5
160
330
1F
100
AcDbEntity
  8
PROFILEEDGES
100
AcDbPolyline
 90
        2
 70
     0
 43
0.0102425219125915
 10
2.545540459424466
 20
0.0229708105621134
 10
2.591454696379282
 20
0.0297777924072786
  0
LWPOLYLINE
  5
161
330
1F
100
AcDbEntity
  8
PROFILEEDGES
100
AcDbPolyline
 90
        2
 70
     0
 43
0.0102425219125915
 10
2.506988888562169
 20
0.0265058634848803
 10
2.545540459424466
 20
0.0229708105621134
  0
LWPOLYLINE
  5
162
330
1F
100
AcDbEntity
  8
PROFILEEDGES
100
AcDbPolyline
 90
        2
 70
     0
 43
0.0102425219125915
 10
2.484543450147122
 20
0.032596913760548
 10
2.506988888562169
 20
0.0265058634848803
  0
LWPOLYLINE
  5
163
330
1F
100
AcDbEntity
  8
PROFILEEDGES
100
AcDbPolyline
 90
        2
 70
     0
 43
0.0102425219125915
 10
2.449493290782887
 20
0.049035105091825
 10
2.484543450147122
 20
0.032596913760548
  0
LWPOLYLINE
  5
164
330
1F
100
AcDbEntity
  8
PROFILEEDGES
100
AcDbPolyline
 90
        2
 70
     0
 43
0.0102425219125915
 10
2.436607724011388
 20
0.0576696873710603
 10
2.449493290782887
 20
0.049035105091825
  0
LWPOLYLINE
  5
165
330
1F
100
AcDbEntity
  8
PROFILEEDGES
100
AcDbPolyline
 90
        2
 70
     0
 43
0.0102425219125915
 10
2.394604603048359
 20
0.0925441303651864
 10
2.436607724011388
 20
0.0576696873710603
  0
LWPOLYLINE
  5
166
330
1F
100
AcDbEntity
  8
PROFILEEDGES
100
AcDbPolyline
 90
        2
 70
     0
 43
0.0102425219125915
 10
2.379020663608691
 20
0.0991055598469925
 10
2.394604603048359
 20
0.0925441303651864
  0
LWPOLYLINE
  5
167
330
1F
100
AcDbEntity
  8
PROFILEEDGES
100
AcDbPolyline
 90
        2
 70
     0
 43
0.0102425219125915
 10
2.369121974759189
 20
0.1013856674803284
 10
2.379020663608691
 20
0.0991055598469925
  0
LWPOLYLINE
  5
168
330
1F
100
AcDbEntity
  8
PROFILEEDGES
100
AcDbPolyline
 90
        2
 70
     0
 43
0.0102425219125915
 10
2.352237884365641
 20
0.1023026966733953
 10
2.369121974759189
 20
0.1013856674803284
  0
LWPOLYLINE
  5
169
330
1F
100
AcDbEntity
  8
PROFILEEDGES
100
AcDbPolyline
 90
        2
 70
     0
 43
0.0102425219125915
 10
2.352237884365641
 20
0.1023026966733953
 10
2.329098741750992
 20
0.0975176545639433
  0
LWPOLYLINE
  5
16A
330
1F
100
AcDbEntity
  8
PROFILEEDGES
100
AcDbPolyline
 90
        2
 70
     0
 43
0.0102425219125915
 10
2.329098741750992
 20
0.0975176545639433
 10
2.325947561513695
 20
0.0962733724046636
  0
LWPOLYLINE
  5
16B
330
1F
100
AcDbEntity
  8
PROFILEEDGES
100
AcDbPolyline
 90
        2
 70
     0
 43
0.0102425219125915
 10
2.325947561513695
 20
0.0962733724046636
 10
2.322852700625792
 20
0.0948946747314974
  0
LWPOLYLINE
  5
16C
330
1F
100
AcDbEntity
  8
PROFILEEDGES
100
AcDbPolyline
 90
        2
 70
     0
 43
0.0102425219125915
 10
2.31982001629962
 20
0.0933842648732135
 10
2.322852700625792
 20
0.0948946747314974
  0
LWPOLYLINE
  5
16D
330
1F
100
AcDbEntity
  8
PROFILEEDGES
100
AcDbPolyline
 90
        2
 70
     0
 43
0.0102425219125915
 10
2.316855065377653
 20
0.091744545788722
 10
2.31982001629962
 20
0.0933842648732135
  0
LWPOLYLINE
  5
16E
330
1F
100
AcDbEntity
  8
PROFILEEDGES
100
AcDbPolyline
 90
        2
 70
     0
 43
0.0102425219125915
 10
2.313963404702364
 20
0.0899789717314512
 10
2.316855065377653
 20
0.091744545788722
  0
LWPOLYLINE
  5
16F
330
1F
100
AcDbEntity
  8
PROFILEEDGES
100
AcDbPolyline
 90
        2
 70
     0
 43
0.0102425219125915
 10
2.313963404702364
 20
0.0899789717314512
 10
2.296204036526767
 20
0.0743930798876704
  0
LWPOLYLINE
  5
170
330
1F
100
AcDbEntity
  8
PROFILEEDGES
100
AcDbPolyline
 90
        2
 70
     0
 43
0.0102425219125915
 10
-2.512341113629329
 20
0.0899789717314512
 10
-2.494581745453733
 20
0.0743930798876704
  0
LWPOLYLINE
  5
171
330
1F
100
AcDbEntity
  8
PROFILEEDGES
100
AcDbPolyline
 90
        2
 70
     0
 43
0.0102425219125915
 10
-2.515232774304618
 20
0.091744545788722
 10
-2.512341113629329
 20
0.0899789717314512
  0
LWPOLYLINE
  5
172
330
1F
100
AcDbEntity
  8
PROFILEEDGES
100
AcDbPolyline
 90
        2
 70
     0
 43
0.0102425219125915
 10
-2.518197725226586
 20
0.0933842648732135
 10
-2.515232774304618
 20
0.091744545788722
  0
LWPOLYLINE
  5
173
330
1F
100
AcDbEntity
  8
PROFILEEDGES
100
AcDbPolyline
 90
        2
 70
     0
 43
0.0102425219125915
 10
-2.521230409552758
 20
0.0948946747314974
 10
-2.518197725226586
 20
0.0933842648732135
  0
LWPOLYLINE
  5
174
330
1F
100
AcDbEntity
  8
PROFILEEDGES
100
AcDbPolyline
 90
        2
 70
     0
 43
0.0102425219125915
 10
-2.521230409552758
 20
0.0948946747314974
 10
-2.524325270440661
 20
0.0962733724046636
  0
LWPOLYLINE
  5
175
330
1F
100
AcDbEntity
  8
PROFILEEDGES
100
AcDbPolyline
 90
        2
 70
     0
 43
0.0102425219125915
 10
-2.524325270440661
 20
0.0962733724046636
 10
-2.527476450677958
 20
0.0975176545639433
  0
LWPOLYLINE
  5
176
330
1F
100
AcDbEntity
  8
PROFILEEDGES
100
AcDbPolyline
 90
        2
 70
     0
 43
0.0102425219125915
 10
-2.527476450677958
 20
0.0975176545639433
 10
-2.530678543607107
 20
0.0986251182504283
  0
LWPOLYLINE
  5
177
330
1F
100
AcDbEntity
  8
PROFILEEDGES
100
AcDbPolyline
 90
        2
 70
     0
 43
0.0102425219125915
 10
-2.530678543607107
 20
0.0986251182504283
 10
-2.533925091276044
 20
0.0995939612449384
  0
LWPOLYLINE
  5
178
330
1F
100
AcDbEntity
  8
PROFILEEDGES
100
AcDbPolyline
 90
        2
 70
     0
 43
0.0102425219125915
 10
-2.533925091276044
 20
0.0995939612449384
 10
-2.537210386657365
 20
0.1004222311433605
  0
LWPOLYLINE
  5
179
330
1F
100
AcDbEntity
  8
PROFILEEDGES
100
AcDbPolyline
 90
        2
 70
     0
 43
0.0102425219125915
 10
-2.537210386657365
 20
0.1004222311433605
 10
-2.550615593292608
 20
0.1023026966733953
  0
LWPOLYLINE
  5
17A
330
1F
100
AcDbEntity
  8
PROFILEEDGES
100
AcDbPolyline
 90
        2
 70
     0
 43
0.0102425219125915
 10
-2.577398372535656
 20
0.0991055598469925
 10
-2.550615593292608
 20
0.1023026966733953
  0
LWPOLYLINE
  5
17B
330
1F
100
AcDbEntity
  8
PROFILEEDGES
100
AcDbPolyline
 90
        2
 70
     0
 43
0.0102425219125915
 10
-2.592982311975325
 20
0.0925441303651864
 10
-2.577398372535656
 20
0.0991055598469925
  0
LWPOLYLINE
  5
17C
330
1F
100
AcDbEntity
  8
PROFILEEDGES
100
AcDbPolyline
 90
        2
 70
     0
 43
0.0102425219125915
 10
-2.634985432938354
 20
0.0576696873710603
 10
-2.592982311975325
 20
0.0925441303651864
  0
LWPOLYLINE
  5
17D
330
1F
100
AcDbEntity
  8
PROFILEEDGES
100
AcDbPolyline
 90
        2
 70
     0
 43
0.0102425219125915
 10
-2.647870999709853
 20
0.049035105091825
 10
-2.634985432938354
 20
0.0576696873710603
  0
LWPOLYLINE
  5
17E
330
1F
100
AcDbEntity
  8
PROFILEEDGES
100
AcDbPolyline
 90
        2
 70
     0
 43
0.0102425219125915
 10
-2.675638992104969
 20
0.035269754990324
 10
-2.647870999709853
 20
0.049035105091825
  0
LWPOLYLINE
  5
17F
330
1F
100
AcDbEntity
  8
PROFILEEDGES
100
AcDbPolyline
 90
        2
 70
     0
 43
0.0102425219125915
 10
-2.690312360303634
 20
0.0302424645860118
 10
-2.675638992104969
 20
0.035269754990324
  0
LWPOLYLINE
  5
180
330
1F
100
AcDbEntity
  8
PROFILEEDGES
100
AcDbPolyline
 90
        2
 70
     0
 43
0.0102425219125915
 10
-2.713001098308063
 20
0.0251307702500743
 10
-2.690312360303634
 20
0.0302424645860118
  0
LWPOLYLINE
  5
181
330
1F
100
AcDbEntity
  8
PROFILEEDGES
100
AcDbPolyline
 90
        2
 70
     0
 43
0.0102425219125915
 10
-2.736161116628222
 20
0.0230070051306575
 10
-2.713001098308063
 20
0.0251307702500743
  0
LWPOLYLINE
  5
182
330
1F
100
AcDbEntity
  8
PROFILEEDGES
100
AcDbPolyline
 90
        2
 70
     0
 43
0.0102425219125915
 10
-2.7516698134171
 20
0.0232710302406165
 10
-2.736161116628222
 20
0.0230070051306575
  0
LWPOLYLINE
  5
183
330
1F
100
AcDbEntity
  8
PROFILEEDGES
100
AcDbPolyline
 90
        2
 70
     0
 43
0.0102425219125915
 10
-2.797245233165962
 20
0.0320631565132237
 10
-2.7516698134171
 20
0.0232710302406165
  0
LWPOLYLINE
  5
184
330
1F
100
AcDbEntity
  8
PROFILEEDGES
100
AcDbPolyline
 90
        2
 70
     0
 43
0.0102425219125915
 10
-2.825700171438754
 20
0.0443460311537409
 10
-2.797245233165962
 20
0.0320631565132237
  0
LWPOLYLINE
  5
185
330
1F
100
AcDbEntity
  8
PROFILEEDGES
100
AcDbPolyline
 90
        2
 70
     0
 43
0.0102425219125915
 10
-2.863357240847741
 20
0.071482796280848
 10
-2.825700171438754
 20
0.0443460311537409
  0
LWPOLYLINE
  5
186
330
1F
100
AcDbEntity
  8
PROFILEEDGES
100
AcDbPolyline
 90
        2
 70
     0
 43
0.0102425219125915
 10
-2.89276074714926
 20
0.10739757029698
 10
-2.863357240847741
 20
0.071482796280848
  0
LWPOLYLINE
  5
187
330
1F
100
AcDbEntity
  8
PROFILEEDGES
100
AcDbPolyline
 90
        2
 70
     0
 43
0.0102425219125915
 10
-2.909509671104262
 20
0.1423003982432007
 10
-2.89276074714926
 20
0.10739757029698
  0
LWPOLYLINE
  5
188
330
1F
100
AcDbEntity
  8
PROFILEEDGES
100
AcDbPolyline
 90
        2
 70
     0
 43
0.0102425219125915
 10
-2.915800016784318
 20
0.1646908689732385
 10
-2.909509671104262
 20
0.1423003982432007
  0
LWPOLYLINE
  5
189
330
1F
100
AcDbEntity
  8
PROFILEEDGES
100
AcDbPolyline
 90
        2
 70
     0
 43
0.0102425219125915
 10
-2.919677190981538
 20
0.2032095493354893
 10
-2.915800016784318
 20
0.1646908689732385
  0
LWPOLYLINE
  5
18A
330
1F
100
AcDbEntity
  8
PROFILEEDGES
100
AcDbPolyline
 90
        2
 70
     0
 43
0.0102425219125915
 10
-2.918878507514664
 20
0.2186999235626974
 10
-2.919677190981538
 20
0.2032095493354893
  0
LWPOLYLINE
  5
18B
330
1F
100
AcDbEntity
  8
PROFILEEDGES
100
AcDbPolyline
 90
        2
 70
     0
 43
0.0102425219125915
 10
-2.911058678489996
 20
0.2566154612391713
 10
-2.918878507514664
 20
0.2186999235626974
  0
LWPOLYLINE
  5
18C
330
1F
100
AcDbEntity
  8
PROFILEEDGES
100
AcDbPolyline
 90
        2
 70
     0
 43
0.0102425219125915
 10
-2.902498738121825
 20
0.2782399888174503
 10
-2.911058678489996
 20
0.2566154612391713
  0
LWPOLYLINE
  5
18D
330
1F
100
AcDbEntity
  8
PROFILEEDGES
100
AcDbPolyline
 90
        2
 70
     0
 43
0.0102425219125915
 10
-2.88686358562044
 20
0.3049997897659456
 10
-2.902498738121825
 20
0.2782399888174503
  0
LWPOLYLINE
  5
18E
330
1F
100
AcDbEntity
  8
PROFILEEDGES
100
AcDbPolyline
 90
        2
 70
     0
 43
0.0102425219125915
 10
-2.866842432373178
 20
0.3286576711347484
 10
-2.88686358562044
 20
0.3049997897659456
  0
LWPOLYLINE
  5
18F
330
1F
100
AcDbEntity
  8
PROFILEEDGES
100
AcDbPolyline
 90
        2
 70
     0
 43
0.0102425219125915
 10
-2.84930593863625
 20
0.3439340318342587
 10
-2.866842432373178
 20
0.3286576711347484
  0
LWPOLYLINE
  5
190
330
1F
100
AcDbEntity
  8
PROFILEEDGES
100
AcDbPolyline
 90
        2
 70
     0
 43
0.0102425219125915
 10
-2.796465773370348
 20
0.3769918378943293
 10
-2.84930593863625
 20
0.3439340318342587
  0
LWPOLYLINE
  5
191
330
1F
100
AcDbEntity
  8
PROFILEEDGES
100
AcDbPolyline
 90
        2
 70
     0
 43
0.0102425219125915
 10
-2.783314078899845
 20
0.3924209366693967
 10
-2.796465773370348
 20
0.3769918378943293
  0
LWPOLYLINE
  5
192
330
1F
100
AcDbEntity
  8
PROFILEEDGES
100
AcDbPolyline
 90
        2
 70
     0
 43
0.0102425219125915
 10
-2.772695103117826
 20
0.4172154176014375
 10
-2.783314078899845
 20
0.3924209366693967
  0
LWPOLYLINE
  5
193
330
1F
100
AcDbEntity
  8
PROFILEEDGES
100
AcDbPolyline
 90
        2
 70
     0
 43
0.0102425219125915
 10
-2.772695103117826
 20
0.4172154176014375
 10
-2.770761622306895
 20
0.4407648654495393
  0
LWPOLYLINE
  5
194
330
1F
100
AcDbEntity
  8
PROFILEEDGES
100
AcDbPolyline
 90
        2
 70
     0
 43
0.0102425219125915
 10
-2.771067098458008
 20
0.4441392204953685
 10
-2.770761622306895
 20
0.4407648654495393
  0
LWPOLYLINE
  5
195
330
1F
100
AcDbEntity
  8
PROFILEEDGES
100
AcDbPolyline
 90
        2
 70
     0
 43
0.0102425219125915
 10
-2.775902452519585
 20
0.4638277141188771
 10
-2.771067098458008
 20
0.4441392204953685
  0
LWPOLYLINE
  5
196
330
1F
100
AcDbEntity
  8
PROFILEEDGES
100
AcDbPolyline
 90
        2
 70
     0
 43
0.0102425219125915
 10
-3.125914743654397
 20
1.288007100648274
 10
-3.088345382245532
 20
1.157900092082206
  0
LWPOLYLINE
  5
197
330
1F
100
AcDbEntity
  8
PROFILEEDGES
100
AcDbPolyline
 90
        2
 70
     0
 43
0.0102425219125915
 10
-3.157823935356692
 20
1.419616784548642
 10
-3.125914743654397
 20
1.288007100648274
  0
LWPOLYLINE
  5
198
330
1F
100
AcDbEntity
  8
PROFILEEDGES
100
AcDbPolyline
 90
        2
 70
     0
 43
0.0102425219125915
 10
-3.167009546150398
 20
1.449698375816865
 10
-3.157823935356692
 20
1.419616784548642
  0
LWPOLYLINE
  5
199
330
1F
100
AcDbEntity
  8
PROFILEEDGES
100
AcDbPolyline
 90
        2
 70
     0
 43
0.0102425219125915
 10
-3.168611118262234
 20
1.45268405225941
 10
-3.167009546150398
 20
1.449698375816865
  0
LWPOLYLINE
  5
19A
330
1F
100
AcDbEntity
  8
PROFILEEDGES
100
AcDbPolyline
 90
        2
 70
     0
 43
0.0102425219125915
 10
-3.168611118262234
 20
1.45268405225941
 10
-3.183181759967604
 20
1.471285357162214
  0
LWPOLYLINE
  5
19B
330
1F
100
AcDbEntity
  8
PROFILEEDGES
100
AcDbPolyline
 90
        2
 70
     0
 43
0.0102425219125915
 10
-3.183181759967604
 20
1.471285357162214
 10
-3.191008497499131
 20
1.477760280123352
  0
LWPOLYLINE
  5
19C
330
1F
100
AcDbEntity
  8
PROFILEEDGES
100
AcDbPolyline
 90
        2
 70
     0
 43
0.0102425219125915
 10
-3.205690576423836
 20
1.486147770643679
 10
-3.191008497499131
 20
1.477760280123352
  0
LWPOLYLINE
  5
19D
330
1F
100
AcDbEntity
  8
PROFILEEDGES
100
AcDbPolyline
 90
        2
 70
     0
 43
0.0102425219125915
 10
-3.235279110561232
 20
1.492696284221358
 10
-3.205690576423836
 20
1.486147770643679
  0
LWPOLYLINE
  5
19E
330
1F
100
AcDbEntity
  8
PROFILEEDGES
100
AcDbPolyline
 90
        2
 70
     0
 43
0.0102425219125915
 10
-3.248789747018539
 20
1.491858928134567
 10
-3.235279110561232
 20
1.492696284221358
  0
LWPOLYLINE
  5
19F
330
1F
100
AcDbEntity
  8
PROFILEEDGES
100
AcDbPolyline
 90
        2
 70
     0
 43
0.0102425219125915
 10
-3.292110290202594
 20
1.481554289414634
 10
-3.248789747018539
 20
1.491858928134567
  0
LWPOLYLINE
  5
1A0
330
1F
100
AcDbEntity
  8
PROFILEEDGES
100
AcDbPolyline
 90
        2
 70
     0
 43
0.0102425219125915
 10
-3.323047485026813
 20
1.479702997307584
 10
-3.292110290202594
 20
1.481554289414634
  0
LWPOLYLINE
  5
1A1
330
1F
100
AcDbEntity
  8
PROFILEEDGES
100
AcDbPolyline
 90
        2
 70
     0
 43
0.0102425219125915
 10
-3.353839901576857
 20
1.483221642526561
 10
-3.323047485026813
 20
1.479702997307584
  0
LWPOLYLINE
  5
1A2
330
1F
100
AcDbEntity
  8
PROFILEEDGES
100
AcDbPolyline
 90
        2
 70
     0
 43
0.0102425219125915
 10
-3.383562100303481
 20
1.492004532425868
 10
-3.353839901576857
 20
1.483221642526561
  0
LWPOLYLINE
  5
1A3
330
1F
100
AcDbEntity
  8
PROFILEEDGES
100
AcDbPolyline
 90
        2
 70
     0
 43
0.0102425219125915
 10
-3.411321081602693
 20
1.505787754534243
 10
-3.383562100303481
 20
1.492004532425868
  0
LWPOLYLINE
  5
1A4
330
1F
100
AcDbEntity
  8
PROFILEEDGES
100
AcDbPolyline
 90
        2
 70
     0
 43
0.0102425219125915
 10
-3.430347109492395
 20
1.519162924183142
 10
-3.411321081602693
 20
1.505787754534243
  0
LWPOLYLINE
  5
1A5
330
1F
100
AcDbEntity
  8
PROFILEEDGES
100
AcDbPolyline
 90
        2
 70
     0
 43
0.0102425219125915
 10
-3.447476902434232
 20
1.534894420318222
 10
-3.430347109492395
 20
1.519162924183142
  0
LWPOLYLINE
  5
1A6
330
1F
100
AcDbEntity
  8
PROFILEEDGES
100
AcDbPolyline
 90
        2
 70
     0
 43
0.0102425219125915
 10
-3.474922898335746
 20
1.572326512699497
 10
-3.447476902434232
 20
1.534894420318222
  0
LWPOLYLINE
  5
1A7
330
1F
100
AcDbEntity
  8
PROFILEEDGES
100
AcDbPolyline
 90
        2
 70
     0
 43
0.0102425219125915
 10
-3.48743991128481
 20
1.600679099941323
 10
-3.474922898335746
 20
1.572326512699497
  0
LWPOLYLINE
  5
1A8
330
1F
100
AcDbEntity
  8
PROFILEEDGES
100
AcDbPolyline
 90
        2
 70
     0
 43
0.0102425219125915
 10
-3.489786100288101
 20
1.608073042045874
 10
-3.48743991128481
 20
1.600679099941323
  0
LWPOLYLINE
  5
1A9
330
1F
100
AcDbEntity
  8
PROFILEEDGES
100
AcDbPolyline
 90
        2
 70
     0
 43
0.0102425219125915
 10
-3.491809692058063
 20
1.61556178838857
 10
-3.489786100288101
 20
1.608073042045874
  0
LWPOLYLINE
  5
1AA
330
1F
100
AcDbEntity
  8
PROFILEEDGES
100
AcDbPolyline
 90
        2
 70
     0
 43
0.0102425219125915
 10
-3.493506181046744
 20
1.623131221585831
 10
-3.491809692058063
 20
1.61556178838857
  0
LWPOLYLINE
  5
1AB
330
1F
100
AcDbEntity
  8
PROFILEEDGES
100
AcDbPolyline
 90
        2
 70
     0
 43
0.0102425219125915
 10
-3.494873164295237
 20
1.630767111615379
 10
-3.493506181046744
 20
1.623131221585831
  0
LWPOLYLINE
  5
1AC
330
1F
100
AcDbEntity
  8
PROFILEEDGES
100
AcDbPolyline
 90
        2
 70
     0
 43
0.0102425219125915
 10
-3.496999182188631
 20
1.661686734802586
 10
-3.494873164295237
 20
1.630767111615379
  0
LWPOLYLINE
  5
1AD
330
1F
100
AcDbEntity
  8
PROFILEEDGES
100
AcDbPolyline
 90
        2
 70
     0
 43
0.0102425219125915
 10
-3.492111263400952
 20
1.700090411053374
 10
-3.496999182188631
 20
1.661686734802586
  0
LWPOLYLINE
  5
1AE
330
1F
100
AcDbEntity
  8
PROFILEEDGES
100
AcDbPolyline
 90
        2
 70
     0
 43
0.0102425219125915
 10
-3.475534151007836
 20
1.743445196401861
 10
-3.492111263400952
 20
1.700090411053374
  0
LWPOLYLINE
  5
1AF
330
1F
100
AcDbEntity
  8
PROFILEEDGES
100
AcDbPolyline
 90
        2
 70
     0
 43
0.0102425219125915
 10
-3.458493868285303
 20
1.76933283590564
 10
-3.475534151007836
 20
1.743445196401861
  0
LWPOLYLINE
  5
1B0
330
1F
100
AcDbEntity
  8
PROFILEEDGES
100
AcDbPolyline
 90
        2
 70
     0
 43
0.0102425219125915
 10
-3.442915185318244
 20
1.786601418497501
 10
-3.458493868285303
 20
1.76933283590564
  0
LWPOLYLINE
  5
1B1
330
1F
100
AcDbEntity
  8
PROFILEEDGES
100
AcDbPolyline
 90
        2
 70
     0
 43
0.0102425219125915
 10
-3.41891262953115
 20
1.806208305383737
 10
-3.442915185318244
 20
1.786601418497501
  0
LWPOLYLINE
  5
1B2
330
1F
100
AcDbEntity
  8
PROFILEEDGES
100
AcDbPolyline
 90
        2
 70
     0
 43
0.0102425219125915
 10
-3.384749462373639
 20
1.82441783411904
 10
-3.41891262953115
 20
1.806208305383737
  0
LWPOLYLINE
  5
1B3
330
1F
100
AcDbEntity
  8
PROFILEEDGES
100
AcDbPolyline
 90
        2
 70
     0
 43
0.0102425219125915
 10
-3.347467254554219
 20
1.83484738915593
 10
-3.30203991714803
 20
1.83694310723935
  0
LWPOLYLINE
  5
1B4
330
1F
100
AcDbEntity
  8
PROFILEEDGES
100
AcDbPolyline
 90
        2
 70
     0
 43
0.0102425219125915
 10
-3.226149368562123
 20
1.909795677480242
 10
-3.231418456706501
 20
1.886762021007007
  0
LWPOLYLINE
  5
1B5
330
1F
100
AcDbEntity
  8
PROFILEEDGES
100
AcDbPolyline
 90
        2
 70
     0
 43
0.0102425219125915
 10
-3.230753437828856
 20
2.091517586319932
 10
-3.22845140319549
 20
2.000656631900087
  0
LWPOLYLINE
  5
1B6
330
1F
100
AcDbEntity
  8
PROFILEEDGES
100
AcDbPolyline
 90
        2
 70
     0
 43
0.0102425219125915
 10
-1.939082075379991
 20
2.091517586319932
 10
-3.230753437828856
 20
2.091517586319932
  0
LWPOLYLINE
  5
1B7
330
1F
100
AcDbEntity
  8
PROFILEEDGES
100
AcDbPolyline
 90
        2
 70
     0
 43
0.0102425219125915
 10
-1.885843319305311
 20
2.093771391497094
 10
-1.939082075379991
 20
2.091517586319932
  0
LWPOLYLINE
  5
1B8
330
1F
100
AcDbEntity
  8
PROFILEEDGES
100
AcDbPolyline
 90
        2
 70
     0
 43
0.0102425219125915
 10
-1.832985582402398
 20
2.100516679161622
 10
-1.885843319305311
 20
2.093771391497094
  0
LWPOLYLINE
  5
1B9
330
1F
100
AcDbEntity
  8
PROFILEEDGES
100
AcDbPolyline
 90
        2
 70
     0
 43
0.0102425219125915
 10
-1.806817960639664
 20
2.105559792956475
 10
-1.832985582402398
 20
2.100516679161622
  0
LWPOLYLINE
  5
1BA
330
1F
100
AcDbEntity
  8
PROFILEEDGES
100
AcDbPolyline
 90
        2
 70
     0
 43
0.0102425219125915
 10
-1.729920422086591
 20
2.127256834043738
 10
-1.755239198615258
 20
2.118941845299197
  0
LWPOLYLINE
  5
1BB
330
1F
100
AcDbEntity
  8
PROFILEEDGES
100
AcDbPolyline
 90
        2
 70
     0
 43
0.0102425219125915
 10
-1.467428550095096
 20
2.303893779118675
 10
-1.504405582133266
 20
2.265525246141909
  0
LWPOLYLINE
  5
1BC
330
1F
100
AcDbEntity
  8
PROFILEEDGES
100
AcDbPolyline
 90
        2
 70
     0
 43
0.0102425219125915
 10
-1.433826774212345
 20
2.345250184992612
 10
-1.467428550095096
 20
2.303893779118675
  0
LWPOLYLINE
  5
1BD
330
1F
100
AcDbEntity
  8
PROFILEEDGES
100
AcDbPolyline
 90
        2
 70
     0
 43
0.0102425219125915
 10
-1.375567636240211
 20
2.425966363165768
 10
-1.397138097243072
 20
2.399700802054437
  0
LWPOLYLINE
  5
1BE
330
1F
100
AcDbEntity
  8
PROFILEEDGES
100
AcDbPolyline
 90
        2
 70
     0
 43
0.0102425219125915
 10
-1.356595750018393
 20
2.443012090092076
 10
-1.375567636240211
 20
2.425966363165768
  0
LWPOLYLINE
  5
1BF
330
1F
100
AcDbEntity
  8
PROFILEEDGES
100
AcDbPolyline
 90
        2
 70
     0
 43
0.0102425219125915
 10
-1.335579246136173
 20
2.457461832927413
 10
-1.356595750018393
 20
2.443012090092076
  0
LWPOLYLINE
  5
1C0
330
1F
100
AcDbEntity
  8
PROFILEEDGES
100
AcDbPolyline
 90
        2
 70
     0
 43
0.0102425219125915
 10
-1.312870908998155
 20
2.469073043007057
 10
-1.335579246136173
 20
2.457461832927413
  0
LWPOLYLINE
  5
1C1
330
1F
100
AcDbEntity
  8
PROFILEEDGES
100
AcDbPolyline
 90
        2
 70
     0
 43
0.0102425219125915
 10
-1.288851983053503
 20
2.477650780289637
 10
-1.312870908998155
 20
2.469073043007057
  0
LWPOLYLINE
  5
1C2
330
1F
100
AcDbEntity
  8
PROFILEEDGES
100
AcDbPolyline
 90
        2
 70
     0
 43
0.0102425219125915
 10
-1.255487123900537
 20
2.484127880932284
 10
-1.288851983053503
 20
2.477650780289637
  0
LWPOLYLINE
  5
1C3
330
1F
100
AcDbEntity
  8
PROFILEEDGES
100
AcDbPolyline
 90
        2
 70
     0
 43
0.0102425219125915
 10
-1.230003369224379
 20
2.485160026875513
 10
-1.255487123900537
 20
2.484127880932284
  0
LWPOLYLINE
  5
1C4
330
1F
100
AcDbEntity
  8
PROFILEEDGES
100
AcDbPolyline
 90
        2
 70
     0
 43
0.0102425219125915
 10
-1.204600038579156
 20
2.482888705060683
 10
-1.230003369224379
 20
2.485160026875513
  0
LWPOLYLINE
  5
1C5
330
1F
100
AcDbEntity
  8
PROFILEEDGES
100
AcDbPolyline
 90
        2
 70
     0
 43
0.0102425219125915
 10
-1.16359452102506
 20
2.471890399687378
 10
-1.204600038579156
 20
2.482888705060683
  0
LWPOLYLINE
  5
1C6
330
1F
100
AcDbEntity
  8
PROFILEEDGES
100
AcDbPolyline
 90
        2
 70
     0
 43
0.0102425219125915
 10
-1.125900806492734
 20
2.452355808072648
 10
-1.16359452102506
 20
2.471890399687378
  0
LWPOLYLINE
  5
1C7
330
1F
100
AcDbEntity
  8
PROFILEEDGES
100
AcDbPolyline
 90
        2
 70
     0
 43
0.0102425219125915
 10
-1.099315820804757
 20
2.431180220801506
 10
-1.125900806492734
 20
2.452355808072648
  0
LWPOLYLINE
  5
1C8
330
1F
100
AcDbEntity
  8
PROFILEEDGES
100
AcDbPolyline
 90
        2
 70
     0
 43
0.0102425219125915
 10
-1.081988609770177
 20
2.412465150812924
 10
-1.099315820804757
 20
2.431180220801506
  0
LWPOLYLINE
  5
1C9
330
1F
100
AcDbEntity
  8
PROFILEEDGES
100
AcDbPolyline
 90
        2
 70
     0
 43
0.0102425219125915
 10
-1.062919929359867
 20
2.384330688411302
 10
-1.081988609770177
 20
2.412465150812924
  0
LWPOLYLINE
  5
1CA
330
1F
100
AcDbEntity
  8
PROFILEEDGES
100
AcDbPolyline
 90
        2
 70
     0
 43
0.0102425219125915
 10
-1.051955378049966
 20
2.361303170747151
 10
-1.062919929359867
 20
2.384330688411302
  0
LWPOLYLINE
  5
1CB
330
1F
100
AcDbEntity
  8
PROFILEEDGES
100
AcDbPolyline
 90
        2
 70
     0
 43
0.0102425219125915
 10
-1.040569407821666
 20
2.320403608662382
 10
-1.051955378049966
 20
2.361303170747151
  0
LWPOLYLINE
  5
1CC
330
1F
100
AcDbEntity
  8
PROFILEEDGES
100
AcDbPolyline
 90
        2
 70
     0
 43
0.0102425219125915
 10
-1.037953862143339
 20
2.286516687913649
 10
-1.040569407821666
 20
2.320403608662382
  0
LWPOLYLINE
  5
1CD
330
1F
100
AcDbEntity
  8
PROFILEEDGES
100
AcDbPolyline
 90
        2
 70
     0
 43
0.0102425219125915
 10
-1.04120634211708
 20
2.252684978900438
 10
-1.037953862143339
 20
2.286516687913649
  0
LWPOLYLINE
  5
1CE
330
1F
100
AcDbEntity
  8
PROFILEEDGES
100
AcDbPolyline
 90
        2
 70
     0
 43
0.0102425219125915
 10
-1.068286487524929
 20
2.21306793042663
 10
-1.04120634211708
 20
2.252684978900438
  0
LWPOLYLINE
  5
1CF
330
1F
100
AcDbEntity
  8
PROFILEEDGES
100
AcDbPolyline
 90
        2
 70
     0
 43
0.0102425219125915
 10
-1.094869520808794
 20
2.170398382602221
 10
-1.068286487524929
 20
2.21306793042663
  0
LWPOLYLINE
  5
1D0
330
1F
100
AcDbEntity
  8
PROFILEEDGES
100
AcDbPolyline
 90
        2
 70
     0
 43
0.0102425219125915
 10
-1.119575017168791
 20
2.126614971805252
 10
-1.094869520808794
 20
2.170398382602221
  0
LWPOLYLINE
  5
1D1
330
1F
100
AcDbEntity
  8
PROFILEEDGES
100
AcDbPolyline
 90
        2
 70
     0
 43
0.0102425219125915
 10
-1.14235641927609
 20
2.08180028390835
 10
-1.119575017168791
 20
2.126614971805252
  0
LWPOLYLINE
  5
1D2
330
1F
100
AcDbEntity
  8
PROFILEEDGES
100
AcDbPolyline
 90
        2
 70
     0
 43
0.0102425219125915
 10
-1.163170849332685
 20
2.036038817295384
 10
-1.14235641927609
 20
2.08180028390835
  0
LWPOLYLINE
  5
1D3
330
1F
100
AcDbEntity
  8
PROFILEEDGES
100
AcDbPolyline
 90
        2
 70
     0
 43
0.0102425219125915
 10
-1.181978883793999
 20
1.989416857316245
 10
-1.177444581336426
 20
2.000656631900087
  0
LWPOLYLINE
  5
1D4
330
1F
100
AcDbEntity
  8
PROFILEEDGES
100
AcDbPolyline
 90
        2
 70
     0
 43
0.0102425219125915
 10
-2.494581745453733
 20
0.0743930798876704
 10
-2.431936605880055
 20
-0.2182452539579365
  0
LWPOLYLINE
  5
1D5
330
1F
100
AcDbEntity
  8
PROFILEEDGES
100
AcDbPolyline
 90
        2
 70
     0
 43
0.0102425219125915
 10
-2.431936605880055
 20
-0.2182452539579365
 10
-2.333683354758641
 20
-0.5009251198702627
  0
LWPOLYLINE
  5
1D6
330
1F
100
AcDbEntity
  8
PROFILEEDGES
100
AcDbPolyline
 90
        2
 70
     0
 43
0.0102425219125915
 10
-2.333683354758641
 20
-0.5009251198702627
 10
-2.201321773934196
 20
-0.7693315651538892
  0
LWPOLYLINE
  5
1D7
330
1F
100
AcDbEntity
  8
PROFILEEDGES
100
AcDbPolyline
 90
        2
 70
     0
 43
0.0102425219125915
 10
-2.201321773934196
 20
-0.7693315651538892
 10
-2.036872290146721
 20
-1.019367513029732
  0
LWPOLYLINE
  5
1D8
330
1F
100
AcDbEntity
  8
PROFILEEDGES
100
AcDbPolyline
 90
        2
 70
     0
 43
0.0102425219125915
 10
-2.036872290146721
 20
-1.019367513029732
 10
-1.842845134328433
 20
-1.247216302258915
  0
LWPOLYLINE
  5
1D9
330
1F
100
AcDbEntity
  8
PROFILEEDGES
100
AcDbPolyline
 90
        2
 70
     0
 43
0.0102425219125915
 10
-1.842845134328433
 20
-1.247216302258915
 10
-1.622202024309079
 20
-1.449399946377635
  0
LWPOLYLINE
  5
1DA
330
1F
100
AcDbEntity
  8
PROFILEEDGES
100
AcDbPolyline
 90
        2
 70
     0
 43
0.0102425219125915
 10
-1.622202024309079
 20
-1.449399946377635
 10
-1.378310955822032
 20
-1.622832223247845
  0
LWPOLYLINE
  5
1DB
330
1F
100
AcDbEntity
  8
PROFILEEDGES
100
AcDbPolyline
 90
        2
 70
     0
 43
0.0102425219125915
 10
-1.378310955822032
 20
-1.622832223247845
 10
-1.11489479190163
 20
-1.764865784540937
  0
LWPOLYLINE
  5
1DC
330
1F
100
AcDbEntity
  8
PROFILEEDGES
100
AcDbPolyline
 90
        2
 70
     0
 43
0.0102425219125915
 10
-1.11489479190163
 20
-1.764865784540937
 10
-0.8359744354263174
 20
-1.873332566054095
  0
LWPOLYLINE
  5
1DD
330
1F
100
AcDbEntity
  8
PROFILEEDGES
100
AcDbPolyline
 90
        2
 70
     0
 43
0.0102425219125915
 10
-0.8359744354263174
 20
-1.873332566054095
 10
-0.5458074522474714
 20
-1.946576882018036
  0
LWPOLYLINE
  5
1DE
330
1F
100
AcDbEntity
  8
PROFILEEDGES
100
AcDbPolyline
 90
        2
 70
     0
 43
0.0102425219125915
 10
-0.5458074522474714
 20
-1.946576882018036
 10
-0.2488230817880979
 20
-1.983480698229751
  0
LWPOLYLINE
  5
1DF
330
1F
100
AcDbEntity
  8
PROFILEEDGES
100
AcDbPolyline
 90
        2
 70
     0
 43
0.0102425219125915
 10
-0.2488230817880979
 20
-1.983480698229751
 10
0.0504453728611329
 20
-1.983480698229751
  0
LWPOLYLINE
  5
1E0
330
1F
100
AcDbEntity
  8
PROFILEEDGES
100
AcDbPolyline
 90
        2
 70
     0
 43
0.0102425219125915
 10
0.0504453728611329
 20
-1.983480698229751
 10
0.3474297433205065
 20
-1.946576882018035
  0
LWPOLYLINE
  5
1E1
330
1F
100
AcDbEntity
  8
PROFILEEDGES
100
AcDbPolyline
 90
        2
 70
     0
 43
0.0102425219125915
 10
0.3474297433205065
 20
-1.946576882018035
 10
0.6375967264993521
 20
-1.873332566054095
  0
LWPOLYLINE
  5
1E2
330
1F
100
AcDbEntity
  8
PROFILEEDGES
100
AcDbPolyline
 90
        2
 70
     0
 43
0.0102425219125915
 10
0.6375967264993521
 20
-1.873332566054095
 10
0.9165170829746647
 20
-1.764865784540937
  0
LWPOLYLINE
  5
1E3
330
1F
100
AcDbEntity
  8
PROFILEEDGES
100
AcDbPolyline
 90
        2
 70
     0
 43
0.0102425219125915
 10
0.9165170829746647
 20
-1.764865784540937
 10
1.179933246895067
 20
-1.622832223247845
  0
LWPOLYLINE
  5
1E4
330
1F
100
AcDbEntity
  8
PROFILEEDGES
100
AcDbPolyline
 90
        2
 70
     0
 43
0.0102425219125915
 10
1.179933246895067
 20
-1.622832223247845
 10
1.423824315382114
 20
-1.449399946377635
  0
LWPOLYLINE
  5
1E5
330
1F
100
AcDbEntity
  8
PROFILEEDGES
100
AcDbPolyline
 90
        2
 70
     0
 43
0.0102425219125915
 10
1.423824315382114
 20
-1.449399946377635
 10
1.644467425401468
 20
-1.247216302258915
  0
LWPOLYLINE
  5
1E6
330
1F
100
AcDbEntity
  8
PROFILEEDGES
100
AcDbPolyline
 90
        2
 70
     0
 43
0.0102425219125915
 10
1.644467425401468
 20
-1.247216302258915
 10
1.838494581219755
 20
-1.019367513029732
  0
LWPOLYLINE
  5
1E7
330
1F
100
AcDbEntity
  8
PROFILEEDGES
100
AcDbPolyline
 90
        2
 70
     0
 43
0.0102425219125915
 10
1.838494581219755
 20
-1.019367513029732
 10
2.002944065007231
 20
-0.7693315651538901
  0
LWPOLYLINE
  5
1E8
330
1F
100
AcDbEntity
  8
PROFILEEDGES
100
AcDbPolyline
 90
        2
 70
     0
 43
0.0102425219125915
 10
2.002944065007231
 20
-0.7693315651538901
 10
2.135305645831675
 20
-0.5009251198702627
  0
LWPOLYLINE
  5
1E9
330
1F
100
AcDbEntity
  8
PROFILEEDGES
100
AcDbPolyline
 90
        2
 70
     0
 43
0.0102425219125915
 10
2.135305645831675
 20
-0.5009251198702627
 10
2.23355889695309
 20
-0.2182452539579369
  0
LWPOLYLINE
  5
1EA
330
1F
100
AcDbEntity
  8
PROFILEEDGES
100
AcDbPolyline
 90
        2
 70
     0
 43
0.0102425219125915
 10
2.23355889695309
 20
-0.2182452539579369
 10
2.296204036526767
 20
0.0743930798876704
  0
LWPOLYLINE
  5
1EB
330
1F
100
AcDbEntity
  8
PROFILEEDGES
100
AcDbPolyline
 90
        2
 70
     0
 43
0.0102425219125915
 10
-3.22845140319549
 20
2.000656631900087
 10
-3.226149368562123
 20
1.909795677480242
  0
LWPOLYLINE
  5
1EC
330
1F
100
AcDbEntity
  8
PROFILEEDGES
100
AcDbPolyline
 90
        2
 70
     0
 43
0.0102425219125915
 10
3.030274735648198
 20
2.000656631900087
 10
3.03237572890189
 20
2.091517586319931
  0
LINE
  5
1ED
330
1F
100
AcDbEntity
  8
0
100
AcDbLine
 10
-3.22845140319549
 20
2.000656631900087
 30
0.0
 11
-1.177444581336426
 21
2.000656631900087
 31
0.0
  0
LWPOLYLINE
  5
1EE
330
1F
100
AcDbEntity
  8
PROFILEEDGES
100
AcDbPolyline
 90
        2
 70
     0
 43
0.0102425219125915
 10
0.9790668724094602
 20
2.000656631900087
 10
0.9836011748670335
 20
1.989416857316245
  0
LWPOLYLINE
  5
1EF
330
1F
100
AcDbEntity
  8
PROFILEEDGES
100
AcDbPolyline
 90
        2
 70
     0
 43
0.0102425219125915
 10
-1.177444581336426
 20
2.000656631900087
 10
-1.163170849332685
 20
2.036038817295384
  0
LINE
  5
1F0
330
1F
100
AcDbEntity
  8
0
100
AcDbLine
 10
0.9790668724094602
 20
2.000656631900087
 30
0.0
 11
3.030274735648198
 21
2.000656631900087
 31
0.0
  0
LWPOLYLINE
  5
1F1
330
1F
100
AcDbEntity
  8
PROFILEEDGES
100
AcDbPolyline
 90
        2
 70
     0
 43
0.0102425219125915
 10
-0.2934343468429792
 20
-1.036823427671077
 10
-0.1594404583784796
 20
-1.045398086162558
  0
LWPOLYLINE
  5
1F2
330
1F
100
AcDbEntity
  8
PROFILEEDGES
100
AcDbPolyline
 90
        2
 70
     0
 43
0.0102425219125915
 10
-0.0601170758506702
 20
-1.045968188163357
 10
0.05264545510695
 20
-1.040362685771933
  0
LWPOLYLINE
  5
1F3
330
1F
100
AcDbEntity
  8
PROFILEEDGES
100
AcDbPolyline
 90
        2
 70
     0
 43
0.0102425219125915
 10
0.1886862046192692
 20
-1.027279175260428
 10
0.3490225676532548
 20
-1.007805596274208
  0
LWPOLYLINE
  5
1F4
330
1F
100
AcDbEntity
  8
PROFILEEDGES
100
AcDbPolyline
 90
        2
 70
     0
 43
0.0102425219125915
 10
-0.6174924634274821
 20
-0.9961167188287714
 10
-0.5474002765802206
 20
-1.007805596274208
  0
LWPOLYLINE
  5
1F5
330
1F
100
AcDbEntity
  8
PROFILEEDGES
100
AcDbPolyline
 90
        2
 70
     0
 43
0.0102425219125915
 10
1.111886440211368
 20
2.27506082537275
 10
1.108429183083231
 20
2.26215800610722
  0
LWPOLYLINE
  5
1F6
330
1F
100
AcDbEntity
  8
PROFILEEDGES
100
AcDbPolyline
 90
        2
 70
     0
 43
0.0102425219125915
 10
-1.172021622821128
 20
2.244413187096883
 10
-1.185536915011319
 20
2.229663815936211
  0
LWPOLYLINE
  5
1F7
330
1F
100
AcDbEntity
  8
PROFILEEDGES
100
AcDbPolyline
 90
        2
 70
     0
 43
0.0102425219125915
 10
1.071802983045552
 20
2.356342149443959
 10
1.092917557688184
 20
2.340140386741437
  0
LWPOLYLINE
  5
1F8
330
1F
100
AcDbEntity
  8
PROFILEEDGES
100
AcDbPolyline
 90
        2
 70
     0
 43
0.0102425219125915
 10
-1.2934996810429
 20
2.239109331140813
 10
-1.307881615381567
 20
2.265324054652757
  0
LWPOLYLINE
  5
1F9
330
1F
100
AcDbEntity
  8
PROFILEEDGES
100
AcDbPolyline
 90
        2
 70
     0
 43
0.0102425219125915
 10
0.9604406308996141
 20
2.278365381971564
 10
0.9600765826251307
 20
2.295046966757806
  0
LWPOLYLINE
  5
1FA
330
1F
100
AcDbEntity
  8
PROFILEEDGES
100
AcDbPolyline
 90
        2
 70
     0
 43
0.0102425219125915
 10
-3.263559233573504
 20
1.616504499204961
 10
-3.286406266495963
 20
1.597333768133549
  0
LWPOLYLINE
  5
1FB
330
1F
100
AcDbEntity
  8
PROFILEEDGES
100
AcDbPolyline
 90
        2
 70
     0
 43
0.0102425219125915
 10
0.977713700266309
 20
2.337626610127466
 10
0.9924630620404238
 20
2.351141921090774
  0
LWPOLYLINE
  5
1FC
330
1F
100
AcDbEntity
  8
PROFILEEDGES
100
AcDbPolyline
 90
        2
 70
     0
 43
0.0102425219125915
 10
0.9924630620404238
 20
2.351141921090774
 10
1.013373910823181
 20
2.361454031511061
  0
LWPOLYLINE
  5
1FD
330
1F
100
AcDbEntity
  8
PROFILEEDGES
100
AcDbPolyline
 90
        2
 70
     0
 43
0.0102425219125915
 10
-3.364766155729169
 20
1.709243394170666
 10
-3.355238123291147
 20
1.716554396646675
  0
LWPOLYLINE
  5
1FE
330
1F
100
AcDbEntity
  8
PROFILEEDGES
100
AcDbPolyline
 90
        2
 70
     0
 43
0.0102425219125915
 10
1.053004184957538
 20
2.363184330882495
 10
1.071802983045552
 20
2.356342149443959
  0
LWPOLYLINE
  5
1FF
330
1F
100
AcDbEntity
  8
PROFILEEDGES
100
AcDbPolyline
 90
        2
 70
     0
 43
0.0102425219125915
 10
0.96696488961082
 20
2.255981538151638
 10
0.9604406308996141
 20
2.278365381971564
  0
LWPOLYLINE
  5
200
330
1F
100
AcDbEntity
  8
PROFILEEDGES
100
AcDbPolyline
 90
        2
 70
     0
 43
0.0102425219125915
 10
-3.286406266495963
 20
1.597333768133549
 10
-3.29750162888139
 20
1.592737883945595
  0
LWPOLYLINE
  5
201
330
1F
100
AcDbEntity
  8
PROFILEEDGES
100
AcDbPolyline
 90
        2
 70
     0
 43
0.0102425219125915
 10
-3.355238123291147
 20
1.716554396646675
 10
-3.344585506084423
 20
1.722099825065412
  0
LWPOLYLINE
  5
202
330
1F
100
AcDbEntity
  8
PROFILEEDGES
100
AcDbPolyline
 90
        2
 70
     0
 43
0.0102425219125915
 10
-3.344585506084423
 20
1.722099825065412
 10
-3.333131502082054
 20
1.725711209479725
  0
LWPOLYLINE
  5
203
330
1F
100
AcDbEntity
  8
PROFILEEDGES
100
AcDbPolyline
 90
        2
 70
     0
 43
0.0102425219125915
 10
-3.291853473969358
 20
1.722099825065412
 10
-3.271673124694475
 20
1.709243394170666
  0
LWPOLYLINE
  5
204
330
1F
100
AcDbEntity
  8
PROFILEEDGES
100
AcDbPolyline
 90
        2
 70
     0
 43
0.0102425219125915
 10
0.9756208732428253
 20
2.241716860698409
 10
0.96696488961082
 20
2.255981538151638
  0
LWPOLYLINE
  5
205
330
1F
100
AcDbEntity
  8
PROFILEEDGES
100
AcDbPolyline
 90
        2
 70
     0
 43
0.0102425219125915
 10
0.9633317659276419
 20
2.311411924161755
 10
0.977713700266309
 20
2.337626610127466
  0
LWPOLYLINE
  5
206
330
1F
100
AcDbEntity
  8
PROFILEEDGES
100
AcDbPolyline
 90
        2
 70
     0
 43
0.0102425219125915
 10
1.007091750221903
 20
2.217568465956059
 10
1.001032764429157
 20
2.220393819983995
  0
LWPOLYLINE
  5
207
330
1F
100
AcDbEntity
  8
PROFILEEDGES
100
AcDbPolyline
 90
        2
 70
     0
 43
0.0102425219125915
 10
1.001032764429157
 20
2.220393819983995
 10
0.9756208732428253
 20
2.241716860698409
  0
LWPOLYLINE
  5
208
330
1F
100
AcDbEntity
  8
PROFILEEDGES
100
AcDbPolyline
 90
        2
 70
     0
 43
0.0102425219125915
 10
1.059461761559062
 20
2.215281937916893
 10
1.033075170165885
 20
2.211808075967243
  0
LWPOLYLINE
  5
209
330
1F
100
AcDbEntity
  8
PROFILEEDGES
100
AcDbPolyline
 90
        2
 70
     0
 43
0.0102425219125915
 10
1.033075170165885
 20
2.211808075967243
 10
1.007091750221903
 20
2.217568465956059
  0
LWPOLYLINE
  5
20A
330
1F
100
AcDbEntity
  8
PROFILEEDGES
100
AcDbPolyline
 90
        2
 70
     0
 43
0.0102425219125915
 10
0.9600765826251307
 20
2.295046966757806
 10
0.9633317659276419
 20
2.311411924161755
  0
LWPOLYLINE
  5
20B
330
1F
100
AcDbEntity
  8
PROFILEEDGES
100
AcDbPolyline
 90
        2
 70
     0
 43
0.0102425219125915
 10
1.097214724046952
 20
2.241716860698409
 10
1.077592687255728
 20
2.22373649539579
  0
LWPOLYLINE
  5
20C
330
1F
100
AcDbEntity
  8
PROFILEEDGES
100
AcDbPolyline
 90
        2
 70
     0
 43
0.0102425219125915
 10
3.051990782093788
 20
1.646482800786396
 10
3.051533619161641
 20
1.667439681250725
  0
LWPOLYLINE
  5
20D
330
1F
100
AcDbEntity
  8
PROFILEEDGES
100
AcDbPolyline
 90
        2
 70
     0
 43
0.0102425219125915
 10
3.185550542240042
 20
1.679164656416145
 10
3.18867378808004
 20
1.655441444602045
  0
LWPOLYLINE
  5
20E
330
1F
100
AcDbEntity
  8
PROFILEEDGES
100
AcDbPolyline
 90
        2
 70
     0
 43
0.0102425219125915
 10
1.111234187052919
 20
2.304954366333348
 10
1.111886440211368
 20
2.27506082537275
  0
LWPOLYLINE
  5
20F
330
1F
100
AcDbEntity
  8
PROFILEEDGES
100
AcDbPolyline
 90
        2
 70
     0
 43
0.0102425219125915
 10
1.108429183083231
 20
2.26215800610722
 10
1.097214724046952
 20
2.241716860698409
  0
LWPOLYLINE
  5
210
330
1F
100
AcDbEntity
  8
PROFILEEDGES
100
AcDbPolyline
 90
        2
 70
     0
 43
0.0102425219125915
 10
1.077592687255728
 20
2.22373649539579
 10
1.059461761559062
 20
2.215281937916893
  0
LWPOLYLINE
  5
211
330
1F
100
AcDbEntity
  8
PROFILEEDGES
100
AcDbPolyline
 90
        2
 70
     0
 43
0.0102425219125915
 10
3.18867378808004
 20
1.655441444602045
 10
3.185550542240042
 20
1.637728783940212
  0
LWPOLYLINE
  5
212
330
1F
100
AcDbEntity
  8
PROFILEEDGES
100
AcDbPolyline
 90
        2
 70
     0
 43
0.0102425219125915
 10
3.185550542240042
 20
1.637728783940212
 10
3.170638379999946
 20
1.611900129568365
  0
LWPOLYLINE
  5
213
330
1F
100
AcDbEntity
  8
PROFILEEDGES
100
AcDbPolyline
 90
        2
 70
     0
 43
0.0102425219125915
 10
3.107877899254375
 20
1.726297644091849
 10
3.140559642245425
 20
1.724155556410762
  0
LWPOLYLINE
  5
214
330
1F
100
AcDbEntity
  8
PROFILEEDGES
100
AcDbPolyline
 90
        2
 70
     0
 43
0.0102425219125915
 10
3.058728979240227
 20
1.69026013144027
 10
3.085392812017355
 20
1.71811380433893
  0
LWPOLYLINE
  5
215
330
1F
100
AcDbEntity
  8
PROFILEEDGES
100
AcDbPolyline
 90
        2
 70
     0
 43
0.0102425219125915
 10
3.099123919954425
 20
1.592737883945595
 10
3.077899485034241
 20
1.603786538817258
  0
LWPOLYLINE
  5
216
330
1F
100
AcDbEntity
  8
PROFILEEDGES
100
AcDbPolyline
 90
        2
 70
     0
 43
0.0102425219125915
 10
3.179508902806909
 20
1.692895539075816
 10
3.185550542240042
 20
1.679164656416145
  0
LWPOLYLINE
  5
217
330
1F
100
AcDbEntity
  8
PROFILEEDGES
100
AcDbPolyline
 90
        2
 70
     0
 43
0.0102425219125915
 10
3.164128163579855
 20
1.711225347168309
 10
3.179508902806909
 20
1.692895539075816
  0
LWPOLYLINE
  5
218
330
1F
100
AcDbEntity
  8
PROFILEEDGES
100
AcDbPolyline
 90
        2
 70
     0
 43
0.0102425219125915
 10
3.085392812017355
 20
1.71811380433893
 10
3.107877899254375
 20
1.726297644091849
  0
LWPOLYLINE
  5
219
330
1F
100
AcDbEntity
  8
PROFILEEDGES
100
AcDbPolyline
 90
        2
 70
     0
 43
0.0102425219125915
 10
2.51893189470221
 20
0.1370111853179727
 10
2.491699762143462
 20
0.1552071410900719
  0
LWPOLYLINE
  5
21A
330
1F
100
AcDbEntity
  8
PROFILEEDGES
100
AcDbPolyline
 90
        2
 70
     0
 43
0.0102425219125915
 10
2.542496511228415
 20
0.1328561689970762
 10
2.51893189470221
 20
0.1370111853179727
  0
LWPOLYLINE
  5
21B
330
1F
100
AcDbEntity
  8
PROFILEEDGES
100
AcDbPolyline
 90
        2
 70
     0
 43
0.0102425219125915
 10
2.566061127754621
 20
0.1370111853179727
 10
2.542496511228415
 20
0.1328561689970762
  0
LWPOLYLINE
  5
21C
330
1F
100
AcDbEntity
  8
PROFILEEDGES
100
AcDbPolyline
 90
        2
 70
     0
 43
0.0102425219125915
 10
2.582014672311246
 20
0.1453162618570198
 10
2.566061127754621
 20
0.1370111853179727
  0
LWPOLYLINE
  5
21D
330
1F
100
AcDbEntity
  8
PROFILEEDGES
100
AcDbPolyline
 90
        2
 70
     0
 43
0.0102425219125915
 10
2.593293260313369
 20
0.1552071410900719
 10
2.582014672311246
 20
0.1453162618570198
  0
LWPOLYLINE
  5
21E
330
1F
100
AcDbEntity
  8
PROFILEEDGES
100
AcDbPolyline
 90
        2
 70
     0
 43
0.0102425219125915
 10
2.602163482750468
 20
0.1673049878947133
 10
2.593293260313369
 20
0.1552071410900719
  0
LWPOLYLINE
  5
21F
330
1F
100
AcDbEntity
  8
PROFILEEDGES
100
AcDbPolyline
 90
        2
 70
     0
 43
0.0102425219125915
 10
2.609761038076195
 20
0.1868416445522554
 10
2.602163482750468
 20
0.1673049878947133
  0
LWPOLYLINE
  5
220
330
1F
100
AcDbEntity
  8
PROFILEEDGES
100
AcDbPolyline
 90
        2
 70
     0
 43
0.0102425219125915
 10
2.611328668393462
 20
0.1987484561237522
 10
2.609761038076195
 20
0.1868416445522554
  0
LWPOLYLINE
  5
221
330
1F
100
AcDbEntity
  8
PROFILEEDGES
100
AcDbPolyline
 90
        2
 70
     0
 43
0.0102425219125915
 10
2.608205422553465
 20
0.2224716679378513
 10
2.611328668393462
 20
0.1987484561237522
  0
LWPOLYLINE
  5
222
330
1F
100
AcDbEntity
  8
PROFILEEDGES
100
AcDbPolyline
 90
        2
 70
     0
 43
0.0102425219125915
 10
2.59715661749687
 20
0.2436959526731028
 10
2.608205422553465
 20
0.2224716679378513
  0
LWPOLYLINE
  5
223
330
1F
100
AcDbEntity
  8
PROFILEEDGES
100
AcDbPolyline
 90
        2
 70
     0
 43
0.0102425219125915
 10
2.576945330126053
 20
0.2614209284993363
 10
2.59715661749687
 20
0.2436959526731028
  0
LWPOLYLINE
  5
224
330
1F
100
AcDbEntity
  8
PROFILEEDGES
100
AcDbPolyline
 90
        2
 70
     0
 43
0.0102425219125915
 10
2.568862677470879
 20
0.2654069867720512
 10
2.576945330126053
 20
0.2614209284993363
  0
LWPOLYLINE
  5
225
330
1F
100
AcDbEntity
  8
PROFILEEDGES
100
AcDbPolyline
 90
        2
 70
     0
 43
0.0102425219125915
 10
2.55148958493966
 20
0.2700619687306354
 10
2.568862677470879
 20
0.2654069867720512
  0
LWPOLYLINE
  5
226
330
1F
100
AcDbEntity
  8
PROFILEEDGES
100
AcDbPolyline
 90
        2
 70
     0
 43
0.0102425219125915
 10
2.524664453545868
 20
0.2683037537350188
 10
2.55148958493966
 20
0.2700619687306354
  0
LWPOLYLINE
  5
227
330
1F
100
AcDbEntity
  8
PROFILEEDGES
100
AcDbPolyline
 90
        2
 70
     0
 43
0.0102425219125915
 10
2.508047692330778
 20
0.2614209284993363
 10
2.524664453545868
 20
0.2683037537350188
  0
LWPOLYLINE
  5
228
330
1F
100
AcDbEntity
  8
PROFILEEDGES
100
AcDbPolyline
 90
        2
 70
     0
 43
0.0102425219125915
 10
2.484388759667454
 20
0.238772440056608
 10
2.508047692330778
 20
0.2614209284993363
  0
LWPOLYLINE
  5
229
330
1F
100
AcDbEntity
  8
PROFILEEDGES
100
AcDbPolyline
 90
        2
 70
     0
 43
0.0102425219125915
 10
2.47678790027323
 20
0.2224716679378513
 10
2.484388759667454
 20
0.238772440056608
  0
LWPOLYLINE
  5
22A
330
1F
100
AcDbEntity
  8
PROFILEEDGES
100
AcDbPolyline
 90
        2
 70
     0
 43
0.0102425219125915
 10
2.474188199105199
 20
0.2107467303186645
 10
2.47678790027323
 20
0.2224716679378513
  0
LWPOLYLINE
  5
22B
330
1F
100
AcDbEntity
  8
PROFILEEDGES
100
AcDbPolyline
 90
        2
 70
     0
 43
0.0102425219125915
 10
2.473860795954055
 20
0.1957489626674898
 10
2.474188199105199
 20
0.2107467303186645
  0
LWPOLYLINE
  5
22C
330
1F
100
AcDbEntity
  8
PROFILEEDGES
100
AcDbPolyline
 90
        2
 70
     0
 43
0.0102425219125915
 10
2.480054122168222
 20
0.1726364027857539
 10
2.473860795954055
 20
0.1957489626674898
  0
LWPOLYLINE
  5
22D
330
1F
100
AcDbEntity
  8
PROFILEEDGES
100
AcDbPolyline
 90
        2
 70
     0
 43
0.0102425219125915
 10
2.491699762143462
 20
0.1552071410900719
 10
2.480054122168222
 20
0.1726364027857539
  0
LWPOLYLINE
  5
22E
330
1F
100
AcDbEntity
  8
PROFILEEDGES
100
AcDbPolyline
 90
        2
 70
     0
 43
0.0102425219125915
 10
3.060174659392939
 20
1.623997901280541
 10
3.051990782093788
 20
1.646482800786396
  0
LWPOLYLINE
  5
22F
330
1F
100
AcDbEntity
  8
PROFILEEDGES
100
AcDbPolyline
 90
        2
 70
     0
 43
0.0102425219125915
 10
3.077899485034241
 20
1.603786538817258
 10
3.060174659392939
 20
1.623997901280541
  0
LWPOLYLINE
  5
230
330
1F
100
AcDbEntity
  8
PROFILEEDGES
100
AcDbPolyline
 90
        2
 70
     0
 43
0.0102425219125915
 10
3.122847131768524
 20
1.589614638105598
 10
3.099123919954425
 20
1.592737883945595
  0
LWPOLYLINE
  5
231
330
1F
100
AcDbEntity
  8
PROFILEEDGES
100
AcDbPolyline
 90
        2
 70
     0
 43
0.0102425219125915
 10
3.146207797157457
 20
1.594793615290945
 10
3.122847131768524
 20
1.589614638105598
  0
LWPOLYLINE
  5
232
330
1F
100
AcDbEntity
  8
PROFILEEDGES
100
AcDbPolyline
 90
        2
 70
     0
 43
0.0102425219125915
 10
3.170638379999946
 20
1.611900129568365
 10
3.146207797157457
 20
1.594793615290945
  0
LWPOLYLINE
  5
233
330
1F
100
AcDbEntity
  8
PROFILEEDGES
100
AcDbPolyline
 90
        2
 70
     0
 43
0.0102425219125915
 10
3.140559642245425
 20
1.724155556410762
 10
3.164128163579855
 20
1.711225347168309
  0
LWPOLYLINE
  5
234
330
1F
100
AcDbEntity
  8
PROFILEEDGES
100
AcDbPolyline
 90
        2
 70
     0
 43
0.0102425219125915
 10
3.051533619161641
 20
1.667439681250725
 10
3.058728979240227
 20
1.69026013144027
  0
LWPOLYLINE
  5
235
330
1F
100
AcDbEntity
  8
PROFILEEDGES
100
AcDbPolyline
 90
        2
 70
     0
 43
0.0102425219125915
 10
1.105870782771423
 20
2.320754421889758
 10
1.111234187052919
 20
2.304954366333348
  0
LWPOLYLINE
  5
236
330
1F
100
AcDbEntity
  8
PROFILEEDGES
100
AcDbPolyline
 90
        2
 70
     0
 43
0.0102425219125915
 10
1.092917557688184
 20
2.340140386741437
 10
1.105870782771423
 20
2.320754421889758
  0
LWPOLYLINE
  5
237
330
1F
100
AcDbEntity
  8
PROFILEEDGES
100
AcDbPolyline
 90
        2
 70
     0
 43
0.0102425219125915
 10
1.039760502216358
 20
2.364927884074153
 10
1.053004184957538
 20
2.363184330882495
  0
LWPOLYLINE
  5
238
330
1F
100
AcDbEntity
  8
PROFILEEDGES
100
AcDbPolyline
 90
        2
 70
     0
 43
0.0102425219125915
 10
1.013373910823181
 20
2.361454031511061
 10
1.039760502216358
 20
2.364927884074153
  0
LWPOLYLINE
  5
239
330
1F
100
AcDbEntity
  8
PROFILEEDGES
100
AcDbPolyline
 90
        2
 70
     0
 43
0.0102425219125915
 10
-1.281446664440376
 20
2.227571054618635
 10
-1.2934996810429
 20
2.239109331140813
  0
LWPOLYLINE
  5
23A
330
1F
100
AcDbEntity
  8
PROFILEEDGES
100
AcDbPolyline
 90
        2
 70
     0
 43
0.0102425219125915
 10
-1.267181949440914
 20
2.218915033440397
 10
-1.281446664440376
 20
2.227571054618635
  0
LWPOLYLINE
  5
23B
330
1F
100
AcDbEntity
  8
PROFILEEDGES
100
AcDbPolyline
 90
        2
 70
     0
 43
0.0102425219125915
 10
-1.248102680992918
 20
2.212899357227335
 10
-1.267181949440914
 20
2.218915033440397
  0
LWPOLYLINE
  5
23C
330
1F
100
AcDbEntity
  8
PROFILEEDGES
100
AcDbPolyline
 90
        2
 70
     0
 43
0.0102425219125915
 10
-1.228116595927212
 20
2.212026745227823
 10
-1.248102680992918
 20
2.212899357227335
  0
LWPOLYLINE
  5
23D
330
1F
100
AcDbEntity
  8
PROFILEEDGES
100
AcDbPolyline
 90
        2
 70
     0
 43
0.0102425219125915
 10
-1.208585571204609
 20
2.216356661288263
 10
-1.228116595927212
 20
2.212026745227823
  0
LWPOLYLINE
  5
23E
330
1F
100
AcDbEntity
  8
PROFILEEDGES
100
AcDbPolyline
 90
        2
 70
     0
 43
0.0102425219125915
 10
-1.185536915011319
 20
2.229663815936211
 10
-1.208585571204609
 20
2.216356661288263
  0
LWPOLYLINE
  5
23F
330
1F
100
AcDbEntity
  8
PROFILEEDGES
100
AcDbPolyline
 90
        2
 70
     0
 43
0.0102425219125915
 10
-1.162784273318444
 20
2.26215800610722
 10
-1.172021622821128
 20
2.244413187096883
  0
LWPOLYLINE
  5
240
330
1F
100
AcDbEntity
  8
PROFILEEDGES
100
AcDbPolyline
 90
        2
 70
     0
 43
0.0102425219125915
 10
-1.15997919425629
 20
2.271781593708048
 10
-1.162784273318444
 20
2.26215800610722
  0
LWPOLYLINE
  5
241
330
1F
100
AcDbEntity
  8
PROFILEEDGES
100
AcDbPolyline
 90
        2
 70
     0
 43
0.0102425219125915
 10
-1.158162707507167
 20
2.288367980020698
 10
-1.15997919425629
 20
2.271781593708048
  0
LWPOLYLINE
  5
242
330
1F
100
AcDbEntity
  8
PROFILEEDGES
100
AcDbPolyline
 90
        2
 70
     0
 43
0.0102425219125915
 10
-1.159326941097841
 20
2.301675134668645
 10
-1.158162707507167
 20
2.288367980020698
  0
LWPOLYLINE
  5
243
330
1F
100
AcDbEntity
  8
PROFILEEDGES
100
AcDbPolyline
 90
        2
 70
     0
 43
0.0102425219125915
 10
-1.166821394467943
 20
2.323753089328896
 10
-1.159326941097841
 20
2.301675134668645
  0
LWPOLYLINE
  5
244
330
1F
100
AcDbEntity
  8
PROFILEEDGES
100
AcDbPolyline
 90
        2
 70
     0
 43
0.0102425219125915
 10
-1.180607920644816
 20
2.342555585720853
 10
-1.166821394467943
 20
2.323753089328896
  0
LWPOLYLINE
  5
245
330
1F
100
AcDbEntity
  8
PROFILEEDGES
100
AcDbPolyline
 90
        2
 70
     0
 43
0.0102425219125915
 10
-1.193620769145947
 20
2.352999464645606
 10
-1.180607920644816
 20
2.342555585720853
  0
LWPOLYLINE
  5
246
330
1F
100
AcDbEntity
  8
PROFILEEDGES
100
AcDbPolyline
 90
        2
 70
     0
 43
0.0102425219125915
 10
-1.218209121259205
 20
2.363184330882495
 10
-1.193620769145947
 20
2.352999464645606
  0
LWPOLYLINE
  5
247
330
1F
100
AcDbEntity
  8
PROFILEEDGES
100
AcDbPolyline
 90
        2
 70
     0
 43
0.0102425219125915
 10
-1.238138211143324
 20
2.364927884074153
 10
-1.218209121259205
 20
2.363184330882495
  0
LWPOLYLINE
  5
248
330
1F
100
AcDbEntity
  8
PROFILEEDGES
100
AcDbPolyline
 90
        2
 70
     0
 43
0.0102425219125915
 10
-1.270180691972518
 20
2.356342149443959
 10
-1.238138211143324
 20
2.364927884074153
  0
LWPOLYLINE
  5
249
330
1F
100
AcDbEntity
  8
PROFILEEDGES
100
AcDbPolyline
 90
        2
 70
     0
 43
0.0102425219125915
 10
-1.286567970611944
 20
2.344867626425295
 10
-1.270180691972518
 20
2.356342149443959
  0
LWPOLYLINE
  5
24A
330
1F
100
AcDbEntity
  8
PROFILEEDGES
100
AcDbPolyline
 90
        2
 70
     0
 43
0.0102425219125915
 10
-1.299427029742995
 20
2.329542774765955
 10
-1.286567970611944
 20
2.344867626425295
  0
LWPOLYLINE
  5
24B
330
1F
100
AcDbEntity
  8
PROFILEEDGES
100
AcDbPolyline
 90
        2
 70
     0
 43
0.0102425219125915
 10
-1.310772825502061
 20
2.298370578069832
 10
-1.299427029742995
 20
2.329542774765955
  0
LWPOLYLINE
  5
24C
330
1F
100
AcDbEntity
  8
PROFILEEDGES
100
AcDbPolyline
 90
        2
 70
     0
 43
0.0102425219125915
 10
-1.311355467944659
 20
2.285025295222344
 10
-1.310772825502061
 20
2.298370578069832
  0
LWPOLYLINE
  5
24D
330
1F
100
AcDbEntity
  8
PROFILEEDGES
100
AcDbPolyline
 90
        2
 70
     0
 43
0.0102425219125915
 10
-1.307881615381567
 20
2.265324054652757
 10
-1.311355467944659
 20
2.285025295222344
  0
LWPOLYLINE
  5
24E
330
1F
100
AcDbEntity
  8
PROFILEEDGES
100
AcDbPolyline
 90
        2
 70
     0
 43
0.0102425219125915
 10
-3.385483866689738
 20
1.643534520391849
 10
-3.387051497007005
 20
1.661451995754311
  0
LWPOLYLINE
  5
24F
330
1F
100
AcDbEntity
  8
PROFILEEDGES
100
AcDbPolyline
 90
        2
 70
     0
 43
0.0102425219125915
 10
-3.382962261686201
 20
1.634882366475603
 10
-3.385483866689738
 20
1.643534520391849
  0
LWPOLYLINE
  5
250
330
1F
100
AcDbEntity
  8
PROFILEEDGES
100
AcDbPolyline
 90
        2
 70
     0
 43
0.0102425219125915
 10
-3.369016088926912
 20
1.611900129568365
 10
-3.382962261686201
 20
1.634882366475603
  0
LWPOLYLINE
  5
251
330
1F
100
AcDbEntity
  8
PROFILEEDGES
100
AcDbPolyline
 90
        2
 70
     0
 43
0.0102425219125915
 10
-3.362505872506821
 20
1.605668093188047
 10
-3.369016088926912
 20
1.611900129568365
  0
LWPOLYLINE
  5
252
330
1F
100
AcDbEntity
  8
PROFILEEDGES
100
AcDbPolyline
 90
        2
 70
     0
 43
0.0102425219125915
 10
-3.347336894033488
 20
1.59600425602552
 10
-3.362505872506821
 20
1.605668093188047
  0
LWPOLYLINE
  5
253
330
1F
100
AcDbEntity
  8
PROFILEEDGES
100
AcDbPolyline
 90
        2
 70
     0
 43
0.0102425219125915
 10
-3.330183672242303
 20
1.590595796264508
 10
-3.347336894033488
 20
1.59600425602552
  0
LWPOLYLINE
  5
254
330
1F
100
AcDbEntity
  8
PROFILEEDGES
100
AcDbPolyline
 90
        2
 70
     0
 43
0.0102425219125915
 10
-3.32122484069549
 20
1.589614638105598
 10
-3.330183672242303
 20
1.590595796264508
  0
LWPOLYLINE
  5
255
330
1F
100
AcDbEntity
  8
PROFILEEDGES
100
AcDbPolyline
 90
        2
 70
     0
 43
0.0102425219125915
 10
-3.29750162888139
 20
1.592737883945595
 10
-3.32122484069549
 20
1.589614638105598
  0
LWPOLYLINE
  5
256
330
1F
100
AcDbEntity
  8
PROFILEEDGES
100
AcDbPolyline
 90
        2
 70
     0
 43
0.0102425219125915
 10
-3.253477018737443
 20
1.634882366475603
 10
-3.263559233573504
 20
1.616504499204961
  0
LWPOLYLINE
  5
257
330
1F
100
AcDbEntity
  8
PROFILEEDGES
100
AcDbPolyline
 90
        2
 70
     0
 43
0.0102425219125915
 10
-3.249584225307325
 20
1.652441876053317
 10
-3.253477018737443
 20
1.634882366475603
  0
LWPOLYLINE
  5
258
330
1F
100
AcDbEntity
  8
PROFILEEDGES
100
AcDbPolyline
 90
        2
 70
     0
 43
0.0102425219125915
 10
-3.251669392899291
 20
1.676278740314493
 10
-3.249584225307325
 20
1.652441876053317
  0
LWPOLYLINE
  5
259
330
1F
100
AcDbEntity
  8
PROFILEEDGES
100
AcDbPolyline
 90
        2
 70
     0
 43
0.0102425219125915
 10
-3.261781945091559
 20
1.697964806168543
 10
-3.251669392899291
 20
1.676278740314493
  0
LWPOLYLINE
  5
25A
330
1F
100
AcDbEntity
  8
PROFILEEDGES
100
AcDbPolyline
 90
        2
 70
     0
 43
0.0102425219125915
 10
-3.271673124694475
 20
1.709243394170666
 10
-3.261781945091559
 20
1.697964806168543
  0
LWPOLYLINE
  5
25B
330
1F
100
AcDbEntity
  8
PROFILEEDGES
100
AcDbPolyline
 90
        2
 70
     0
 43
0.0102425219125915
 10
-3.32122484069549
 20
1.727278802250759
 10
-3.291853473969358
 20
1.722099825065412
  0
LWPOLYLINE
  5
25C
330
1F
100
AcDbEntity
  8
PROFILEEDGES
100
AcDbPolyline
 90
        2
 70
     0
 43
0.0102425219125915
 10
-3.333131502082054
 20
1.725711209479725
 10
-3.32122484069549
 20
1.727278802250759
  0
LWPOLYLINE
  5
25D
330
1F
100
AcDbEntity
  8
PROFILEEDGES
100
AcDbPolyline
 90
        2
 70
     0
 43
0.0102425219125915
 10
-3.380661728902152
 20
1.687564124184776
 10
-3.364766155729169
 20
1.709243394170666
  0
LWPOLYLINE
  5
25E
330
1F
100
AcDbEntity
  8
PROFILEEDGES
100
AcDbPolyline
 90
        2
 70
     0
 43
0.0102425219125915
 10
-3.386070188663163
 20
1.670410677116193
 10
-3.380661728902152
 20
1.687564124184776
  0
LWPOLYLINE
  5
25F
330
1F
100
AcDbEntity
  8
PROFILEEDGES
100
AcDbPolyline
 90
        2
 70
     0
 43
0.0102425219125915
 10
-3.387051497007005
 20
1.661451995754311
 10
-3.386070188663163
 20
1.670410677116193
  0
LWPOLYLINE
  5
260
330
1F
100
AcDbEntity
  8
PROFILEEDGES
100
AcDbPolyline
 90
        2
 70
     0
 43
0.0102425219125915
 10
-2.809182231908734
 20
0.2107467303186645
 10
-2.798981971716343
 20
0.238772440056608
  0
LWPOLYLINE
  5
261
330
1F
100
AcDbEntity
  8
PROFILEEDGES
100
AcDbPolyline
 90
        2
 70
     0
 43
0.0102425219125915
 10
-2.808138747003161
 20
0.1868416445522554
 10
-2.809182231908734
 20
0.2107467303186645
  0
LWPOLYLINE
  5
262
330
1F
100
AcDbEntity
  8
PROFILEEDGES
100
AcDbPolyline
 90
        2
 70
     0
 43
0.0102425219125915
 10
-2.800541191677435
 20
0.1673049878947133
 10
-2.808138747003161
 20
0.1868416445522554
  0
LWPOLYLINE
  5
263
330
1F
100
AcDbEntity
  8
PROFILEEDGES
100
AcDbPolyline
 90
        2
 70
     0
 43
0.0102425219125915
 10
-2.791670969240335
 20
0.1552071410900719
 10
-2.800541191677435
 20
0.1673049878947133
  0
LWPOLYLINE
  5
264
330
1F
100
AcDbEntity
  8
PROFILEEDGES
100
AcDbPolyline
 90
        2
 70
     0
 43
0.0102425219125915
 10
-2.77268759387124
 20
0.1406408547477218
 10
-2.791670969240335
 20
0.1552071410900719
  0
LWPOLYLINE
  5
265
330
1F
100
AcDbEntity
  8
PROFILEEDGES
100
AcDbPolyline
 90
        2
 70
     0
 43
0.0102425219125915
 10
-2.746879214465174
 20
0.1331183918878551
 10
-2.77268759387124
 20
0.1406408547477218
  0
LWPOLYLINE
  5
266
330
1F
100
AcDbEntity
  8
PROFILEEDGES
100
AcDbPolyline
 90
        2
 70
     0
 43
0.0102425219125915
 10
-2.723042162472833
 20
0.1352038598496836
 10
-2.746879214465174
 20
0.1331183918878551
  0
LWPOLYLINE
  5
267
330
1F
100
AcDbEntity
  8
PROFILEEDGES
100
AcDbPolyline
 90
        2
 70
     0
 43
0.0102425219125915
 10
-2.703855436706193
 20
0.1436462054163208
 10
-2.723042162472833
 20
0.1352038598496836
  0
LWPOLYLINE
  5
268
330
1F
100
AcDbEntity
  8
PROFILEEDGES
100
AcDbPolyline
 90
        2
 70
     0
 43
0.0102425219125915
 10
-2.694327704638034
 20
0.150957057707398
 10
-2.703855436706193
 20
0.1436462054163208
  0
LWPOLYLINE
  5
269
330
1F
100
AcDbEntity
  8
PROFILEEDGES
100
AcDbPolyline
 90
        2
 70
     0
 43
0.0102425219125915
 10
-2.678431831095188
 20
0.1726364027857539
 10
-2.694327704638034
 20
0.150957057707398
  0
LWPOLYLINE
  5
26A
330
1F
100
AcDbEntity
  8
PROFILEEDGES
100
AcDbPolyline
 90
        2
 70
     0
 43
0.0102425219125915
 10
-2.672042062990335
 20
0.1987484561237522
 10
-2.678431831095188
 20
0.1726364027857539
  0
LWPOLYLINE
  5
26B
330
1F
100
AcDbEntity
  8
PROFILEEDGES
100
AcDbPolyline
 90
        2
 70
     0
 43
0.0102425219125915
 10
-2.672042062990335
 20
0.2047591574609502
 10
-2.672042062990335
 20
0.1987484561237522
  0
LWPOLYLINE
  5
26C
330
1F
100
AcDbEntity
  8
PROFILEEDGES
100
AcDbPolyline
 90
        2
 70
     0
 43
0.0102425219125915
 10
-2.677221040175681
 20
0.2281198228498837
 10
-2.672042062990335
 20
0.2047591574609502
  0
LWPOLYLINE
  5
26D
330
1F
100
AcDbEntity
  8
PROFILEEDGES
100
AcDbPolyline
 90
        2
 70
     0
 43
0.0102425219125915
 10
-2.692156330895262
 20
0.2504718462374029
 10
-2.677221040175681
 20
0.2281198228498837
  0
LWPOLYLINE
  5
26E
330
1F
100
AcDbEntity
  8
PROFILEEDGES
100
AcDbPolyline
 90
        2
 70
     0
 43
0.0102425219125915
 10
-2.703855436706193
 20
0.2598614081683817
 10
-2.692156330895262
 20
0.2504718462374029
  0
LWPOLYLINE
  5
26F
330
1F
100
AcDbEntity
  8
PROFILEEDGES
100
AcDbPolyline
 90
        2
 70
     0
 43
0.0102425219125915
 10
-2.723042162472833
 20
0.2683037537350188
 10
-2.703855436706193
 20
0.2598614081683817
  0
LWPOLYLINE
  5
270
330
1F
100
AcDbEntity
  8
PROFILEEDGES
100
AcDbPolyline
 90
        2
 70
     0
 43
0.0102425219125915
 10
-2.746879214465174
 20
0.2703893718817802
 10
-2.723042162472833
 20
0.2683037537350188
  0
LWPOLYLINE
  5
271
330
1F
100
AcDbEntity
  8
PROFILEEDGES
100
AcDbPolyline
 90
        2
 70
     0
 43
0.0102425219125915
 10
-2.767240386397845
 20
0.2654069867720512
 10
-2.746879214465174
 20
0.2703893718817802
  0
LWPOLYLINE
  5
272
330
1F
100
AcDbEntity
  8
PROFILEEDGES
100
AcDbPolyline
 90
        2
 70
     0
 43
0.0102425219125915
 10
-2.789592109415501
 20
0.2504718462374029
 10
-2.767240386397845
 20
0.2654069867720512
  0
LWPOLYLINE
  5
273
330
1F
100
AcDbEntity
  8
PROFILEEDGES
100
AcDbPolyline
 90
        2
 70
     0
 43
0.0102425219125915
 10
-2.798981971716343
 20
0.238772440056608
 10
-2.789592109415501
 20
0.2504718462374029
  0
ENDSEC
  0
SECTION
  2
OBJECTS
  0
DICTIONARY
  5
C
330
0
100
AcDbDictionary
  3
ACAD_GROUP
350
D
  3
ACAD_LAYOUT
350
1A
  3
ACAD_MATERIAL
350
43
  3
ACAD_MLEADERSTYLE
350
6B
  3
ACAD_MLINESTYLE
350
17
  3
ACAD_PLOTSETTINGS
350
19
  3
ACAD_SCALELIST
350
47
  3
ACAD_VISUALSTYLE
350
2A
  3
ACDBHEADERROUNDTRIPXREC
350
274
  3
ACDBVARIABLEDICTIONARY
350
295
  0
DICTIONARY
  5
29C
330
8
100
AcDbDictionary
280
     1
  3
ACAD_XREC_ROUNDTRIP
360
29D
  0
DICTIONARY
  5
D
102
{ACAD_REACTORS
330
C
102
}
330
C
100
AcDbDictionary
  0
DICTIONARY
  5
1A
102
{ACAD_REACTORS
330
C
102
}
330
C
100
AcDbDictionary
  0
DICTIONARY
  5
43
102
{ACAD_REACTORS
330
C
102
}
330
C
100
AcDbDictionary
  3
BYBLOCK
350
45
  3
BYLAYER
350
44
  3
GLOBAL
350
46
  0
DICTIONARY
  5
6B
102
{ACAD_REACTORS
330
C
102
}
330
C
100
AcDbDictionary
  3
STANDARD
350
6C
  0
DICTIONARY
  5
17
102
{ACAD_REACTORS
330
C
102
}
330
C
100
AcDbDictionary
  3
STANDARD
350
18
  0
DICTIONARY
  5
19
102
{ACAD_REACTORS
330
C
102
}
330
C
100
AcDbDictionary
  0
DICTIONARY
  5
47
102
{ACAD_REACTORS
330
C
102
}
330
C
100
AcDbDictionary
  3
A0
350
48
  3
A1
350
49
  3
A2
350
4A
  3
A3
350
4B
  3
A4
350
4C
  3
A5
350
4D
  3
A6
350
4E
  3
A7
350
4F
  3
A8
350
50
  3
A9
350
51
  3
B0
350
52
  3
B1
350
53
  3
B2
350
54
  3
B3
350
55
  3
B4
350
56
  3
B5
350
57
  3
B6
350
58
  3
B7
350
59
  3
B8
350
5A
  3
B9
350
5B
  3
C0
350
5C
  3
C1
350
5D
  3
C2
350
5E
  3
C3
350
5F
  3
C4
350
60
  3
C5
350
61
  3
C6
350
62
  3
C7
350
63
  3
C8
350
64
  3
C9
350
65
  3
D0
350
66
  3
D1
350
67
  3
D2
350
68
  0
DICTIONARY
  5
2A
102
{ACAD_REACTORS
330
C
102
}
330
C
100
AcDbDictionary
  3
2DWIREFRAME
350
2F
  3
BASIC
350
32
  3
BRIGHTEN
350
36
  3
COLORCHANGE
350
3A
  3
CONCEPTUAL
350
34
  3
DIM
350
35
  3
EDGECOLOROFF
350
3D
  3
FACEPATTERN
350
39
  3
FLAT
350
2B
  3
FLATWITHEDGES
350
2C
  3
GOURAUD
350
2D
  3
GOURAUDWITHEDGES
350
2E
  3
HIDDEN
350
31
  3
JITTEROFF
350
3B
  3
LINEPATTERN
350
38
  3
OVERHANGOFF
350
3C
  3
REALISTIC
350
33
  3
SHADED
350
42
  3
SHADED_WITH_EDGES
350
41
  3
SHADES_OF_GRAY
350
3E
  3
SKETCHY
350
3F
  3
THICKEN
350
37
  3
WIREFRAME
350
30
  3
X-RAY
350
40
  0
DICTIONARY
  5
274
102
{ACAD_REACTORS
330
C
102
}
330
C
100
AcDbDictionary
  3
CEPSNID
350
27E
  3
CEPSNTYPE
350
27D
  3
DIMSTYLEDATA
350
294
  3
FINGERPRINTGUID
350
27F
  3
HYPERLINKBASE
350
277
  3
INSUNITS
350
27C
  3
LAYOUTDICT
350
279
  3
LWETCUNION
350
27B
  3
PLOTSETDICT
350
27A
  3
PSVPSCALE
350
281
  3
PUCSBASE
350
284
  3
PUCSORGBACK
350
28A
  3
PUCSORGBOTTOM
350
286
  3
PUCSORGFRONT
350
289
  3
PUCSORGLEFT
350
287
  3
PUCSORGRIGHT
350
288
  3
PUCSORGTOP
350
285
  3
PUCSORTHOREF
350
282
  3
PUCSORTHOVIEW
350
283
  3
STYLESHEET
350
278
  3
TSTACKALIGN
350
275
  3
TSTACKSIZE
350
276
  3
UCSBASE
350
28D
  3
UCSORGBACK
350
293
  3
UCSORGBOTTOM
350
28F
  3
UCSORGFRONT
350
292
  3
UCSORGLEFT
350
290
  3
UCSORGRIGHT
350
291
  3
UCSORGTOP
350
28E
  3
UCSORTHOREF
350
28B
  3
UCSORTHOVIEW
350
28C
  3
VERSIONGUID
350
280
  0
DICTIONARY
  5
295
102
{ACAD_REACTORS
330
C
102
}
330
C
100
AcDbDictionary
  3
CANNOSCALE
350
29E
  3
CMLEADERSTYLE
350
297
  3
CTABLESTYLE
350
296
  3
DIMASSOC
350
29A
  3
HIDETEXT
350
29B
  3
MSLTSCALE
350
29F
  0
XRECORD
  5
29D
102
{ACAD_REACTORS
330
29C
102
}
330
29C
100
AcDbXrecord
102
VTR_0.000_0.000_1.000_1.000_VISUALSTYLE
340
2F
102
VTR_0.000_0.000_1.000_1.000_GRIDDISPLAY
 70
     3
102
VTR_0.000_0.000_1.000_1.000_GRIDMAJOR
 70
     5
102
VTR_0.000_0.000_1.000_1.000_DEFAULTLIGHTING
280
     1
102
VTR_0.000_0.000_1.000_1.000_DEFAULTLIGHTINGTYPE
 70
     1
102
VTR_0.000_0.000_1.000_1.000_BRIGHTNESS
141
0.0
102
VTR_0.000_0.000_1.000_1.000_CONTRAST
142
0.0
  0
MATERIAL
  5
45
102
{ACAD_REACTORS
330
43
102
}
102
{ACAD_XDICTIONARY
360
2A2
102
}
330
43
100
AcDbMaterial
  1
BYBLOCK
  0
MATERIAL
  5
44
102
{ACAD_REACTORS
330
43
102
}
102
{ACAD_XDICTIONARY
360
2A0
102
}
330
43
100
AcDbMaterial
  1
BYLAYER
  0
MATERIAL
  5
46
102
{ACAD_REACTORS
330
43
102
}
102
{ACAD_XDICTIONARY
360
2A4
102
}
330
43
100
AcDbMaterial
  1
GLOBAL
  0
ACAD_PROXY_OBJECT
  5
6C
102
{ACAD_REACTORS
330
6B
102
}
330
6B
100
AcDbProxyObject
 90
      499
 91
      505
 93
      610
310
40901902A4063FBFFFFFE056BD1B81E855B9FC0AD7A3703D0AD73F4214DD185B99185C9900AD7A3703D0AC73F90141901A02B5E8DC0F42B1CFC02B5E8DC0F42B1CFE5764000000000000300FC0
340
14
340
0
340
11
340
0
 94
        0
1001
ACAD_MLEADERVER
1070
     2
  0
MLINESTYLE
  5
18
102
{ACAD_REACTORS
330
17
102
}
330
17
100
AcDbMlineStyle
  2
Standard
 70
     0
  3

 62
   256
 51
90.0
 52
90.0
 71
     2
 49
0.5
 62
   256
  6
BYLAYER
 49
-0.5
 62
   256
  6
BYLAYER
  0
ACAD_PROXY_OBJECT
  5
48
102
{ACAD_REACTORS
330
47
102
}
330
47
100
AcDbProxyObject
 90
      499
 91
      503
 93
       41
310
903313A31580
  0
ACAD_PROXY_OBJECT
  5
49
102
{ACAD_REACTORS
330
47
102
}
330
47
100
AcDbProxyObject
 90
      499
 91
      503
 93
      105
310
903313A324000000000000004000
  0
ACAD_PROXY_OBJECT
  5
4A
102
{ACAD_REACTORS
330
47
102
}
330
47
100
AcDbProxyObject
 90
      499
 91
      503
 93
      105
310
903313A344000000000000104000
  0
ACAD_PROXY_OBJECT
  5
4B
102
{ACAD_REACTORS
330
47
102
}
330
47
100
AcDbProxyObject
 90
      499
 91
      503
 93
      105
310
903313A354000000000000144000
  0
ACAD_PROXY_OBJECT
  5
4C
102
{ACAD_REACTORS
330
47
102
}
330
47
100
AcDbProxyObject
 90
      499
 91
      503
 93
      105
310
903313A384000000000000204000
  0
ACAD_PROXY_OBJECT
  5
4D
102
{ACAD_REACTORS
330
47
102
}
330
47
100
AcDbProxyObject
 90
      499
 91
      503
 93
      113
310
904313A31304000000000000244000
  0
ACAD_PROXY_OBJECT
  5
4E
102
{ACAD_REACTORS
330
47
102
}
330
47
100
AcDbProxyObject
 90
      499
 91
      503
 93
      113
310
904313A31364000000000000304000
  0
ACAD_PROXY_OBJECT
  5
4F
102
{ACAD_REACTORS
330
47
102
}
330
47
100
AcDbProxyObject
 90
      499
 91
      503
 93
      113
310
904313A32304000000000000344000
  0
ACAD_PROXY_OBJECT
  5
50
102
{ACAD_REACTORS
330
47
102
}
330
47
100
AcDbProxyObject
 90
      499
 91
      503
 93
      113
310
904313A333040000000000003E4000
  0
ACAD_PROXY_OBJECT
  5
51
102
{ACAD_REACTORS
330
47
102
}
330
47
100
AcDbProxyObject
 90
      499
 91
      503
 93
      113
310
904313A34304000000000000444000
  0
ACAD_PROXY_OBJECT
  5
52
102
{ACAD_REACTORS
330
47
102
}
330
47
100
AcDbProxyObject
 90
      499
 91
      503
 93
      113
310
904313A35304000000000000494000
  0
ACAD_PROXY_OBJECT
  5
53
102
{ACAD_REACTORS
330
47
102
}
330
47
100
AcDbProxyObject
 90
      499
 91
      503
 93
      121
310
905313A3130304000000000000594000
  0
ACAD_PROXY_OBJECT
  5
54
102
{ACAD_REACTORS
330
47
102
}
330
47
100
AcDbProxyObject
 90
      499
 91
      503
 93
      105
310
903323A310000000000000010100
  0
ACAD_PROXY_OBJECT
  5
55
102
{ACAD_REACTORS
330
47
102
}
330
47
100
AcDbProxyObject
 90
      499
 91
      503
 93
      105
310
903343A310000000000000410100
  0
ACAD_PROXY_OBJECT
  5
56
102
{ACAD_REACTORS
330
47
102
}
330
47
100
AcDbProxyObject
 90
      499
 91
      503
 93
      105
310
903383A310000000000000810100
  0
ACAD_PROXY_OBJECT
  5
57
102
{ACAD_REACTORS
330
47
102
}
330
47
100
AcDbProxyObject
 90
      499
 91
      503
 93
      113
310
90431303A310000000000000910100
  0
ACAD_PROXY_OBJECT
  5
58
102
{ACAD_REACTORS
330
47
102
}
330
47
100
AcDbProxyObject
 90
      499
 91
      503
 93
      121
310
9053130303A310000000000001650100
  0
ACAD_PROXY_OBJECT
  5
59
102
{ACAD_REACTORS
330
47
102
}
330
47
100
AcDbProxyObject
 90
      499
 91
      503
 93
      257
310
90E312F31323822203D2031272D3022000000000000200FC000000000000284000
  0
ACAD_PROXY_OBJECT
  5
5A
102
{ACAD_REACTORS
330
47
102
}
330
47
100
AcDbProxyObject
 90
      499
 91
      503
 93
      249
310
90D312F363422203D2031272D3022000000000000240FC000000000000284000
  0
ACAD_PROXY_OBJECT
  5
5B
102
{ACAD_REACTORS
330
47
102
}
330
47
100
AcDbProxyObject
 90
      499
 91
      503
 93
      249
310
90D312F333222203D2031272D3022000000000000280FC000000000000284000
  0
ACAD_PROXY_OBJECT
  5
5C
102
{ACAD_REACTORS
330
47
102
}
330
47
100
AcDbProxyObject
 90
      499
 91
      503
 93
      249
310
90D312F313622203D2031272D30220000000000002C0FC000000000000284000
  0
ACAD_PROXY_OBJECT
  5
5D
102
{ACAD_REACTORS
330
47
102
}
330
47
100
AcDbProxyObject
 90
      499
 91
      503
 93
      249
310
90D332F333222203D2031272D30220000000000002E0FC000000000000284000
  0
ACAD_PROXY_OBJECT
  5
5E
102
{ACAD_REACTORS
330
47
102
}
330
47
100
AcDbProxyObject
 90
      499
 91
      503
 93
      241
310
90C312F3822203D2031272D3022000000000000300FC000000000000284000
  0
ACAD_PROXY_OBJECT
  5
5F
102
{ACAD_REACTORS
330
47
102
}
330
47
100
AcDbProxyObject
 90
      499
 91
      503
 93
      249
310
90D332F313622203D2031272D3022000000000000320FC000000000000284000
  0
ACAD_PROXY_OBJECT
  5
60
102
{ACAD_REACTORS
330
47
102
}
330
47
100
AcDbProxyObject
 90
      499
 91
      503
 93
      241
310
90C312F3422203D2031272D3022000000000000340FC000000000000284000
  0
ACAD_PROXY_OBJECT
  5
61
102
{ACAD_REACTORS
330
47
102
}
330
47
100
AcDbProxyObject
 90
      499
 91
      503
 93
      241
310
90C332F3822203D2031272D3022000000000000360FC000000000000284000
  0
ACAD_PROXY_OBJECT
  5
62
102
{ACAD_REACTORS
330
47
102
}
330
47
100
AcDbProxyObject
 90
      499
 91
      503
 93
      241
310
90C312F3222203D2031272D3022000000000000380FC000000000000284000
  0
ACAD_PROXY_OBJECT
  5
63
102
{ACAD_REACTORS
330
47
102
}
330
47
100
AcDbProxyObject
 90
      499
 91
      503
 93
      241
310
90C332F3422203D2031272D30220000000000003A0FC000000000000284000
  0
ACAD_PROXY_OBJECT
  5
64
102
{ACAD_REACTORS
330
47
102
}
330
47
100
AcDbProxyObject
 90
      499
 91
      503
 93
      161
310
90A3122203D2031272D30224000000000000284000
  0
ACAD_PROXY_OBJECT
  5
65
102
{ACAD_REACTORS
330
47
102
}
330
47
100
AcDbProxyObject
 90
      499
 91
      503
 93
      257
310
90E312D312F3222203D2031272D30220000000000003E0FC000000000000284000
  0
ACAD_PROXY_OBJECT
  5
66
102
{ACAD_REACTORS
330
47
102
}
330
47
100
AcDbProxyObject
 90
      499
 91
      503
 93
      225
310
90A3322203D2031272D302200000000000002100000000000000284000
  0
ACAD_PROXY_OBJECT
  5
67
102
{ACAD_REACTORS
330
47
102
}
330
47
100
AcDbProxyObject
 90
      499
 91
      503
 93
      225
310
90A3622203D2031272D302200000000000006100000000000000284000
  0
ACAD_PROXY_OBJECT
  5
68
102
{ACAD_REACTORS
330
47
102
}
330
47
100
AcDbProxyObject
 90
      499
 91
      503
 93
      249
310
90D31272D3022203D2031272D30220000000000000A100000000000000284000
  0
ACAD_PROXY_OBJECT
  5
2F
102
{ACAD_REACTORS
330
2A
102
}
330
2A
100
AcDbProxyObject
 90
      499
 91
      501
 93
      436
310
42CC9915DA5C99599C985B595049028333333333333E33F0000000000000F90107901411070040501600405405064090741402480A0340
1001
ACAD
1000
AcDbSavedByObjectVersion
1070
     0
  0
ACAD_PROXY_OBJECT
  5
32
102
{ACAD_REACTORS
330
2A
102
}
330
2A
100
AcDbProxyObject
 90
      499
 91
      501
 93
      388
310
4150985CDA58D07406404333333333333E33F0000000000000F90107A41107004050150841D405064090741402480A0350
1001
ACAD
1000
AcDbSavedByObjectVersion
1070
     0
  0
ACAD_PROXY_OBJECT
  5
36
102
{ACAD_REACTORS
330
2A
102
}
330
2A
100
AcDbProxyObject
 90
      499
 91
      501
 93
      428
310
42109C9A59DA1D195B90C409028333333333333E33F0000000000000F9010790141107004050150841D405064090741402480A029950
1001
ACAD
1000
AcDbSavedByObjectVersion
1070
     0
  0
ACAD_PROXY_OBJECT
  5
3A
102
{ACAD_REACTORS
330
2A
102
}
330
2A
100
AcDbProxyObject
 90
      499
 91
      501
 93
      452
310
42D0DBDB1BDC90DA185B99D95104090240C333333333333E33F0000000000000F90108901411070040501508421405064090741402480A0350
1001
ACAD
1000
AcDbSavedByObjectVersion
1070
     0
  0
ACAD_PROXY_OBJECT
  5
34
102
{ACAD_REACTORS
330
2A
102
}
330
2A
100
AcDbProxyObject
 90
      499
 91
      501
 93
      500
310
4290DBDB98D95C1D1D585B10940D028333333333333E33F0000000000000F90107902409070040501000000000018199010841D405064090740C02480A0340
1001
ACAD
1000
AcDbSavedByObjectVersion
1070
     0
  0
ACAD_PROXY_OBJECT
  5
35
102
{ACAD_REACTORS
330
2A
102
}
330
2A
100
AcDbProxyObject
 90
      499
 91
      501
 93
      412
310
40D11A5B50B409028333333333333E33F0000000000000F9010790141107004050150841D405064090741402480A02677FFFFFD0
1001
ACAD
1000
AcDbSavedByObjectVersion
1070
     0
  0
ACAD_PROXY_OBJECT
  5
3D
102
{ACAD_REACTORS
330
2A
102
}
330
2A
100
AcDbProxyObject
 90
      499
 91
      501
 93
      452
310
43115919D950DBDB1BDC93D999916409028333333333333E33F0000000000000F9010790141107004050150841D405064090741402480A0350
1001
ACAD
1000
AcDbSavedByObjectVersion
1070
     0
  0
ACAD_PROXY_OBJECT
  5
39
102
{ACAD_REACTORS
330
2A
102
}
330
2A
100
AcDbProxyObject
 90
      499
 91
      501
 93
      444
310
42D19858D95C185D1D195C9B90F409028333333333333E33F0000000000000F9010790141107004050150841D405064090741402480A0350
1001
ACAD
1000
AcDbSavedByObjectVersion
1070
     0
  0
ACAD_PROXY_OBJECT
  5
2B
102
{ACAD_REACTORS
330
2A
102
}
330
2A
100
AcDbProxyObject
 90
      499
 91
      501
 93
      380
310
41119B185D240901404333333333333E33F0000000000000F9010740A907004050150841D405064090741402480A1B50
1001
ACAD
1000
AcDbSavedByObjectVersion
1070
     0
  0
ACAD_PROXY_OBJECT
  5
2C
102
{ACAD_REACTORS
330
2A
102
}
330
2A
100
AcDbProxyObject
 90
      499
 91
      501
 93
      468
310
43519B185D15DA5D1A115919D95CD0140901404333333333333E33F0000000000000F90107409019070040501600405405064090741402480A1B50
1001
ACAD
1000
AcDbSavedByObjectVersion
1070
     0
  0
ACAD_PROXY_OBJECT
  5
2D
102
{ACAD_REACTORS
330
2A
102
}
330
2A
100
AcDbProxyObject
 90
      499
 91
      501
 93
      404
310
41D1DBDD5C985D5910240902404333333333333E33F0000000000000F9010740A9070040501641D405064090741402480A1B50
1001
ACAD
1000
AcDbSavedByObjectVersion
1070
     0
  0
ACAD_PROXY_OBJECT
  5
2E
102
{ACAD_REACTORS
330
2A
102
}
330
2A
100
AcDbProxyObject
 90
      499
 91
      501
 93
      492
310
4411DBDD5C985D5915DA5D1A115919D95CD0340902404333333333333E33F0000000000000F90107409019070040501600405405064090741402480A1B50
1001
ACAD
1000
AcDbSavedByObjectVersion
1070
     0
  0
ACAD_PROXY_OBJECT
  5
31
102
{ACAD_REACTORS
330
2A
102
}
330
2A
100
AcDbProxyObject
 90
      499
 91
      501
 93
      476
310
41921A5919195B90640502408333333333333E33F0000000000000F901079024090700405020000000000001110200405405064090740C02480A0340
1001
ACAD
1000
AcDbSavedByObjectVersion
1070
     0
  0
ACAD_PROXY_OBJECT
  5
3B
102
{ACAD_REACTORS
330
2A
102
}
330
2A
100
AcDbProxyObject
 90
      499
 91
      501
 93
      428
310
42529A5D1D195C93D999914409028333333333333E33F0000000000000F9010790141107004050150A41D405064090741402480A0350
1001
ACAD
1000
AcDbSavedByObjectVersion
1070
     0
  0
ACAD_PROXY_OBJECT
  5
38
102
{ACAD_REACTORS
330
2A
102
}
330
2A
100
AcDbProxyObject
 90
      499
 91
      501
 93
      444
310
42D31A5B995C185D1D195C9B90E409028333333333333E33F0000000000000F9010790141107004050750841D405064090741402483A0350
1001
ACAD
1000
AcDbSavedByObjectVersion
1070
     0
  0
ACAD_PROXY_OBJECT
  5
3C
102
{ACAD_REACTORS
330
2A
102
}
330
2A
100
AcDbProxyObject
 90
      499
 91
      501
 93
      444
310
42D3DD995C9A185B99D3D999915409028333333333333E33F0000000000000F9010790141107004050150941D405064090741402480A0350
1001
ACAD
1000
AcDbSavedByObjectVersion
1070
     0
  0
ACAD_PROXY_OBJECT
  5
33
102
{ACAD_REACTORS
330
2A
102
}
330
2A
100
AcDbProxyObject
 90
      499
 91
      501
 93
      428
310
425499585B1A5CDD1A58D08409038333333333333E33F0000000000000F9010740A907004050150800405405064090740C02480A1B40
1001
ACAD
1000
AcDbSavedByObjectVersion
1070
     0
  0
ACAD_PROXY_OBJECT
  5
42
102
{ACAD_REACTORS
330
2A
102
}
330
2A
100
AcDbProxyObject
 90
      499
 91
      501
 93
      420
310
4194DA1859195911B40902404333333333333E33F0000000000000F9010740A41107004050150800405405064090840C02480A0B40
1001
ACAD
1000
AcDbSavedByObjectVersion
1070
     0
  0
ACAD_PROXY_OBJECT
  5
41
102
{ACAD_REACTORS
330
2A
102
}
330
2A
100
AcDbProxyObject
 90
      499
 91
      501
 93
      516
310
4454DA18591959081DDA5D1A08195919D95CD1A40902404333333333333E33F0000000000000F901074090142907004050250800405405064090740C02480A0B40
1001
ACAD
1000
AcDbSavedByObjectVersion
1070
     0
  0
ACAD_PROXY_OBJECT
  5
3E
102
{ACAD_REACTORS
330
2A
102
}
330
2A
100
AcDbProxyObject
 90
      499
 91
      501
 93
      532
310
4394DA1859195CC81BD98811DC985E5174090240C333333333333E33F0000000000000F901079024090741D01000000000000111010841D405064090740C02480A0340
1001
ACAD
1000
AcDbSavedByObjectVersion
1070
     0
  0
ACAD_PROXY_OBJECT
  5
3F
102
{ACAD_REACTORS
330
2A
102
}
330
2A
100
AcDbProxyObject
 90
      499
 91
      501
 93
      476
310
41D4DAD95D18DA1E51840502408333333333333E33F0000000000000F901079024090741D01000000000000111010B41D405064090741802480A0340
1001
ACAD
1000
AcDbSavedByObjectVersion
1070
     0
  0
ACAD_PROXY_OBJECT
  5
37
102
{ACAD_REACTORS
330
2A
102
}
330
2A
100
AcDbProxyObject
 90
      499
 91
      501
 93
      412
310
41D51A1A58DAD95B90D409028333333333333E33F0000000000000F9010790141107004050150C41D405064090741402480A0350
1001
ACAD
1000
AcDbSavedByObjectVersion
1070
     0
  0
ACAD_PROXY_OBJECT
  5
30
102
{ACAD_REACTORS
330
2A
102
}
330
2A
100
AcDbProxyObject
 90
      499
 91
      501
 93
      420
310
4255DA5C99599C985B595059028333333333333E33F0000000000000F90107901411070040501600405405064090740C02480A0340
1001
ACAD
1000
AcDbSavedByObjectVersion
1070
     0
  0
ACAD_PROXY_OBJECT
  5
40
102
{ACAD_REACTORS
330
2A
102
}
330
2A
100
AcDbProxyObject
 90
      499
 91
      501
 93
      404
310
41560B54985E51940902404000000000000E03F0000000000000F9010740501907004050150841D405064090740C02480A1B40
1001
ACAD
1000
AcDbSavedByObjectVersion
1070
     0
  0
XRECORD
  5
27E
102
{ACAD_REACTORS
330
274
102
}
330
274
100
AcDbXrecord
340
0
  0
XRECORD
  5
27D
102
{ACAD_REACTORS
330
274
102
}
330
274
100
AcDbXrecord
 90
        0
  0
XRECORD
  5
294
102
{ACAD_REACTORS
330
274
102
}
330
274
100
AcDbXrecord
1000
DSTYLE
1002
{
1070
   340
340
11
1002
}
  0
XRECORD
  5
27F
102
{ACAD_REACTORS
330
274
102
}
330
274
100
AcDbXrecord
  1
{C6F6504E-C07E-4B43-A913-D77CC1F46B21}
  0
XRECORD
  5
277
102
{ACAD_REACTORS
330
274
102
}
330
274
100
AcDbXrecord
  1

  0
XRECORD
  5
27C
102
{ACAD_REACTORS
330
274
102
}
330
274
100
AcDbXrecord
 90
        1
  0
XRECORD
  5
279
102
{ACAD_REACTORS
330
274
102
}
330
274
100
AcDbXrecord
340
1A
  0
XRECORD
  5
27B
102
{ACAD_REACTORS
330
274
102
}
330
274
100
AcDbXrecord
 90
    10781
  0
XRECORD
  5
27A
102
{ACAD_REACTORS
330
274
102
}
330
274
100
AcDbXrecord
340
19
  0
XRECORD
  5
281
102
{ACAD_REACTORS
330
274
102
}
330
274
100
AcDbXrecord
 40
0.0
  0
XRECORD
  5
284
102
{ACAD_REACTORS
330
274
102
}
330
274
100
AcDbXrecord
340
0
  0
XRECORD
  5
28A
102
{ACAD_REACTORS
330
274
102
}
330
274
100
AcDbXrecord
 10
0.0
 20
0.0
 30
0.0
  0
XRECORD
  5
286
102
{ACAD_REACTORS
330
274
102
}
330
274
100
AcDbXrecord
 10
0.0
 20
0.0
 30
0.0
  0
XRECORD
  5
289
102
{ACAD_REACTORS
330
274
102
}
330
274
100
AcDbXrecord
 10
0.0
 20
0.0
 30
0.0
  0
XRECORD
  5
287
102
{ACAD_REACTORS
330
274
102
}
330
274
100
AcDbXrecord
 10
0.0
 20
0.0
 30
0.0
  0
XRECORD
  5
288
102
{ACAD_REACTORS
330
274
102
}
330
274
100
AcDbXrecord
 10
0.0
 20
0.0
 30
0.0
  0
XRECORD
  5
285
102
{ACAD_REACTORS
330
274
102
}
330
274
100
AcDbXrecord
 10
0.0
 20
0.0
 30
0.0
  0
XRECORD
  5
282
102
{ACAD_REACTORS
330
274
102
}
330
274
100
AcDbXrecord
340
0
  0
XRECORD
  5
283
102
{ACAD_REACTORS
330
274
102
}
330
274
100
AcDbXrecord
 70
     0
  0
XRECORD
  5
278
102
{ACAD_REACTORS
330
274
102
}
330
274
100
AcDbXrecord
  1

  0
XRECORD
  5
275
102
{ACAD_REACTORS
330
274
102
}
330
274
100
AcDbXrecord
 90
        1
  0
XRECORD
  5
276
102
{ACAD_REACTORS
330
274
102
}
330
274
100
AcDbXrecord
 90
       70
  0
XRECORD
  5
28D
102
{ACAD_REACTORS
330
274
102
}
330
274
100
AcDbXrecord
340
0
  0
XRECORD
  5
293
102
{ACAD_REACTORS
330
274
102
}
330
274
100
AcDbXrecord
 10
0.0
 20
0.0
 30
0.0
  0
XRECORD
  5
28F
102
{ACAD_REACTORS
330
274
102
}
330
274
100
AcDbXrecord
 10
0.0
 20
0.0
 30
0.0
  0
XRECORD
  5
292
102
{ACAD_REACTORS
330
274
102
}
330
274
100
AcDbXrecord
 10
0.0
 20
0.0
 30
0.0
  0
XRECORD
  5
290
102
{ACAD_REACTORS
330
274
102
}
330
274
100
AcDbXrecord
 10
0.0
 20
0.0
 30
0.0
  0
XRECORD
  5
291
102
{ACAD_REACTORS
330
274
102
}
330
274
100
AcDbXrecord
 10
0.0
 20
0.0
 30
0.0
  0
XRECORD
  5
28E
102
{ACAD_REACTORS
330
274
102
}
330
274
100
AcDbXrecord
 10
0.0
 20
0.0
 30
0.0
  0
XRECORD
  5
28B
102
{ACAD_REACTORS
330
274
102
}
330
274
100
AcDbXrecord
340
0
  0
XRECORD
  5
28C
102
{ACAD_REACTORS
330
274
102
}
330
274
100
AcDbXrecord
 70
     0
  0
XRECORD
  5
280
102
{ACAD_REACTORS
330
274
102
}
330
274
100
AcDbXrecord
  1
{FAEB1C32-E019-11D5-929B-00C0DF256EC4}
  0
DICTIONARYVAR
  5
29E
102
{ACAD_REACTORS
330
295
102
}
330
295
100
DictionaryVariables
280
     0
  1
1:1
  0
DICTIONARYVAR
  5
297
102
{ACAD_REACTORS
330
295
102
}
330
295
100
DictionaryVariables
280
     0
  1
Standard
  0
DICTIONARYVAR
  5
296
102
{ACAD_REACTORS
330
295
102
}
330
295
100
DictionaryVariables
280
     0
  1
Standard
  0
DICTIONARYVAR
  5
29A
102
{ACAD_REACTORS
330
295
102
}
330
295
100
DictionaryVariables
280
     0
  1
2
  0
DICTIONARYVAR
  5
29B
102
{ACAD_REACTORS
330
295
102
}
330
295
100
DictionaryVariables
280
     0
  1
1
  0
DICTIONARYVAR
  5
29F
102
{ACAD_REACTORS
330
295
102
}
330
295
100
DictionaryVariables
280
     0
  1
1
  0
DICTIONARY
  5
2A2
330
45
100
AcDbDictionary
280
     1
  3
ACAD_XREC_ROUNDTRIP
360
2A3
  0
DICTIONARY
  5
2A0
330
44
100
AcDbDictionary
280
     1
  3
ACAD_XREC_ROUNDTRIP
360
2A1
  0
DICTIONARY
  5
2A4
330
46
100
AcDbDictionary
280
     1
  3
ACAD_XREC_ROUNDTRIP
360
2A5
  0
XRECORD
  5
2A3
102
{ACAD_REACTORS
330
2A2
102
}
330
2A2
100
AcDbXrecord
102
MATERIAL
148
0.0
149
0.0
149
0.0
 93
        0
 94
      127
282
     0
 72
     1
 77
     1
171
     1
175
     1
179
     1
273
     0
  0
XRECORD
  5
2A1
102
{ACAD_REACTORS
330
2A0
102
}
330
2A0
100
AcDbXrecord
102
MATERIAL
148
0.0
149
0.0
149
0.0
 93
        0
 94
      127
282
     0
 72
     1
 77
     1
171
     1
175
     1
179
     1
273
     0
  0
XRECORD
  5
2A5
102
{ACAD_REACTORS
330
2A4
102
}
330
2A4
100
AcDbXrecord
102
MATERIAL
148
0.0
149
0.0
149
0.0
 93
        0
 94
      127
282
     0
 72
     1
 77
     1
171
     1
175
     1
179
     1
273
     0
  0
ENDSEC
  0
EOF
